ISO-10303-21;
HEADER;
FILE_DESCRIPTION (( 'STEP AP203' ),
    '1' );
FILE_NAME ('250729 STEP 3-400289-01_17642.STEP',
    '2025-07-29T09:15:29',
    ( '' ),
    ( '' ),
    'SwSTEP 2.0',
    'SolidWorks 2024',
    '' );
FILE_SCHEMA (( 'CONFIG_CONTROL_DESIGN' ));
ENDSEC;

DATA;
#1 = DIRECTION ( 'NONE',  ( 0.000000000000000000, 0.000000000000000000, 1.000000000000000000 ) ) ;
#2 = EDGE_CURVE ( 'NONE', #252, #252, #56, .T. ) ;
#3 = PERSON_AND_ORGANIZATION ( #189, #6 ) ;
#4 = EDGE_LOOP ( 'NONE', ( #54 ) ) ;
#5 = PERSON_AND_ORGANIZATION ( #189, #6 ) ;
#6 = ORGANIZATION ( 'UNSPECIFIED', 'UNSPECIFIED', '' ) ;
#7 = CARTESIAN_POINT ( 'NONE',  ( 305.0000000000000000, 3.980102097228899257E-14, 0.000000000000000000 ) ) ;
#8 = ORIENTED_EDGE ( 'NONE', *, *, #100, .T. ) ;
#9 = SHAPE_DEFINITION_REPRESENTATION ( #141, #142 ) ;
#10 = ORIENTED_EDGE ( 'NONE', *, *, #15, .T. ) ;
#11 = APPROVAL_ROLE ( '' ) ;
#12 = DIRECTION ( 'NONE',  ( 5.476311492524132601E-16, 1.000000000000000000, 0.000000000000000000 ) ) ;
#13 = SECURITY_CLASSIFICATION ( '', '', #212 ) ;
#14 = PLANE ( 'NONE',  #216 ) ;
#15 = EDGE_CURVE ( 'NONE', #51, #51, #251, .T. ) ;
#16 = CARTESIAN_POINT ( 'NONE',  ( 19.99999999999998934, 1.836970198721028800E-15, 0.000000000000000000 ) ) ;
#17 = PLANE ( 'NONE',  #18 ) ;
#18 = AXIS2_PLACEMENT_3D ( 'NONE', #84, #104, #160 ) ;
#19 = DIRECTION ( 'NONE',  ( 0.000000000000000000, 1.000000000000000000, 0.000000000000000000 ) ) ;
#20 = PRODUCT_DEFINITION ( 'UNKNOWN', '', #83, #275 ) ;
#21 = DIRECTION ( 'NONE',  ( -1.000000000000000000, -0.000000000000000000, -0.000000000000000000 ) ) ;
#22 = DIRECTION ( 'NONE',  ( 0.000000000000000000, 0.000000000000000000, 1.000000000000000000 ) ) ;
#23 = AXIS2_PLACEMENT_3D ( 'NONE', #203, #107, #248 ) ;
#24 = FACE_OUTER_BOUND ( 'NONE', #122, .T. ) ;
#25 = CARTESIAN_POINT ( 'NONE',  ( 19.99999999999998934, 1.836970198721028800E-15, 5.099999999999985434 ) ) ;
#26 = VERTEX_POINT ( 'NONE', #255 ) ;
#27 = VERTEX_POINT ( 'NONE', #137 ) ;
#28 = ADVANCED_FACE ( 'NONE', ( #241, #198 ), #174, .T. ) ;
#29 = APPROVAL_STATUS ( 'not_yet_approved' ) ;
#30 = PERSON_AND_ORGANIZATION_ROLE ( 'creator' ) ;
#31 = CALENDAR_DATE ( 2025, 29, 7 ) ;
#32 = EDGE_LOOP ( 'NONE', ( #217 ) ) ;
#33 = CC_DESIGN_APPROVAL ( #59, ( #20 ) ) ;
#34 = COORDINATED_UNIVERSAL_TIME_OFFSET ( 2, 0, .AHEAD. ) ;
#35 = ORIENTED_EDGE ( 'NONE', *, *, #175, .T. ) ;
#36 = EDGE_LOOP ( 'NONE', ( #213 ) ) ;
#37 = FACE_OUTER_BOUND ( 'NONE', #36, .T. ) ;
#38 = AXIS2_PLACEMENT_3D ( 'NONE', #196, #264, #12 ) ;
#39 =( GEOMETRIC_REPRESENTATION_CONTEXT ( 3 ) GLOBAL_UNCERTAINTY_ASSIGNED_CONTEXT ( ( #162 ) ) GLOBAL_UNIT_ASSIGNED_CONTEXT ( ( #112, #118, #229 ) ) REPRESENTATION_CONTEXT ( 'NONE', 'WORKASPACE' ) );
#40 = LOCAL_TIME ( 12, 15, 29.00000000000000000, #96 ) ;
#41 = DIRECTION ( 'NONE',  ( -1.387778780781444689E-16, 1.000000000000000000, 0.000000000000000000 ) ) ;
#42 = DIRECTION ( 'NONE',  ( 1.000000000000000000, 1.224646799147353454E-16, -0.000000000000000000 ) ) ;
#43 = DIRECTION ( 'NONE',  ( -1.000000000000000000, -0.000000000000000000, -0.000000000000000000 ) ) ;
#44 = AXIS2_PLACEMENT_3D ( 'NONE', #179, #21, #183 ) ;
#45 = CARTESIAN_POINT ( 'NONE',  ( 305.0000000000000000, 12.50000000000002842, 0.000000000000000000 ) ) ;
#46 = PERSON_AND_ORGANIZATION_ROLE ( 'design_owner' ) ;
#47 = CARTESIAN_POINT ( 'NONE',  ( 280.0000000000000000, 3.980102097228899257E-14, -5.099999999999984546 ) ) ;
#48 = ADVANCED_FACE ( 'NONE', ( #148, #234 ), #215, .F. ) ;
#49 = CARTESIAN_POINT ( 'NONE',  ( 300.0000000000000000, 1.775737858763662173E-14, 12.50000000000000888 ) ) ;
#50 = APPLICATION_CONTEXT ( 'configuration controlled 3d designs of mechanical parts and assemblies' ) ;
#51 = VERTEX_POINT ( 'NONE', #139 ) ;
#52 = AXIS2_PLACEMENT_3D ( 'NONE', #66, #62, #157 ) ;
#53 = CARTESIAN_POINT ( 'NONE',  ( 0.000000000000000000, 0.000000000000000000, 0.000000000000000000 ) ) ;
#54 = ORIENTED_EDGE ( 'NONE', *, *, #207, .F. ) ;
#55 = PERSON_AND_ORGANIZATION ( #189, #6 ) ;
#56 = CIRCLE ( 'NONE', #38, 40.00000000000000711 ) ;
#57 = EDGE_LOOP ( 'NONE', ( #80 ) ) ;
#58 = EDGE_LOOP ( 'NONE', ( #155 ) ) ;
#59 = APPROVAL ( #67, 'UNSPECIFIED' ) ;
#60 = ORIENTED_EDGE ( 'NONE', *, *, #175, .F. ) ;
#61 = DIRECTION ( 'NONE',  ( 0.000000000000000000, 0.000000000000000000, -1.000000000000000000 ) ) ;
#62 = DIRECTION ( 'NONE',  ( 1.000000000000000000, -0.000000000000000000, -0.000000000000000000 ) ) ;
#63 = FACE_BOUND ( 'NONE', #58, .T. ) ;
#64 = DIRECTION ( 'NONE',  ( 1.000000000000000000, 0.000000000000000000, 0.000000000000000000 ) ) ;
#65 = LOCAL_TIME ( 12, 15, 29.00000000000000000, #34 ) ;
#66 = CARTESIAN_POINT ( 'NONE',  ( 305.0000000000000000, 3.980102097228899257E-14, 0.000000000000000000 ) ) ;
#67 = APPROVAL_STATUS ( 'not_yet_approved' ) ;
#68 = ADVANCED_FACE ( 'NONE', ( #63, #37 ), #14, .T. ) ;
#69 = CYLINDRICAL_SURFACE ( 'NONE', #205, 5.099999999999986322 ) ;
#70 = DIRECTION ( 'NONE',  ( 0.000000000000000000, 0.000000000000000000, 1.000000000000000000 ) ) ;
#71 = APPLICATION_PROTOCOL_DEFINITION ( 'international standard', 'config_control_design', 1994, #50 ) ;
#72 = PERSON_AND_ORGANIZATION ( #189, #6 ) ;
#73 = APPROVAL_ROLE ( '' ) ;
#74 = ORIENTED_EDGE ( 'NONE', *, *, #156, .F. ) ;
#75 = APPROVAL_DATE_TIME ( #192, #147 ) ;
#76 = ORIENTED_EDGE ( 'NONE', *, *, #146, .F. ) ;
#77 = ORIENTED_EDGE ( 'NONE', *, *, #15, .F. ) ;
#78 = CIRCLE ( 'NONE', #243, 12.50000000000000888 ) ;
#79 = DIRECTION ( 'NONE',  ( 1.000000000000000000, 0.000000000000000000, 0.000000000000000000 ) ) ;
#80 = ORIENTED_EDGE ( 'NONE', *, *, #165, .T. ) ;
#81 = CARTESIAN_POINT ( 'NONE',  ( 305.0000000000000000, 1.836970198721030062E-14, 0.000000000000000000 ) ) ;
#82 = FACE_OUTER_BOUND ( 'NONE', #93, .T. ) ;
#83 = PRODUCT_DEFINITION_FORMATION_WITH_SPECIFIED_SOURCE ( 'ANY', '', #204, .NOT_KNOWN. ) ;
#84 = CARTESIAN_POINT ( 'NONE',  ( 300.0000000000000000, 40.00000000000000000, 0.000000000000000000 ) ) ;
#85 = FACE_BOUND ( 'NONE', #154, .T. ) ;
#86 = DIRECTION ( 'NONE',  ( 0.000000000000000000, 0.000000000000000000, -1.000000000000000000 ) ) ;
#87 = APPLICATION_PROTOCOL_DEFINITION ( 'international standard', 'config_control_design', 1994, #106 ) ;
#88 = CC_DESIGN_DATE_AND_TIME_ASSIGNMENT ( #119, #214, ( #20 ) ) ;
#89 = CARTESIAN_POINT ( 'NONE',  ( 0.000000000000000000, -1.898202538678398267E-14, -12.50000000000000888 ) ) ;
#90 = AXIS2_PLACEMENT_3D ( 'NONE', #202, #43, #132 ) ;
#91 = CARTESIAN_POINT ( 'NONE',  ( 0.000000000000000000, 0.000000000000000000, 0.000000000000000000 ) ) ;
#92 = COORDINATED_UNIVERSAL_TIME_OFFSET ( 2, 0, .AHEAD. ) ;
#93 = EDGE_LOOP ( 'NONE', ( #74 ) ) ;
#94 = CIRCLE ( 'NONE', #44, 12.50000000000000888 ) ;
#95 = LOCAL_TIME ( 12, 15, 29.00000000000000000, #92 ) ;
#96 = COORDINATED_UNIVERSAL_TIME_OFFSET ( 2, 0, .AHEAD. ) ;
#97 = EDGE_LOOP ( 'NONE', ( #236 ) ) ;
#98 = EDGE_LOOP ( 'NONE', ( #152 ) ) ;
#99 = PERSON_AND_ORGANIZATION_ROLE ( 'classification_officer' ) ;
#100 = EDGE_CURVE ( 'NONE', #278, #278, #78, .T. ) ;
#101 = COORDINATED_UNIVERSAL_TIME_OFFSET ( 2, 0, .AHEAD. ) ;
#102 = AXIS2_PLACEMENT_3D ( 'NONE', #53, #266, #242 ) ;
#103 = CC_DESIGN_APPROVAL ( #116, ( #83 ) ) ;
#104 = DIRECTION ( 'NONE',  ( -1.000000000000000000, 0.000000000000000000, -0.000000000000000000 ) ) ;
#105 = FACE_OUTER_BOUND ( 'NONE', #4, .T. ) ;
#106 = APPLICATION_CONTEXT ( 'configuration controlled 3d designs of mechanical parts and assemblies' ) ;
#107 = DIRECTION ( 'NONE',  ( 1.000000000000000000, 1.224646799147353454E-16, -0.000000000000000000 ) ) ;
#108 = APPROVAL_PERSON_ORGANIZATION ( #3, #147, #11 ) ;
#109 = DIRECTION ( 'NONE',  ( 0.000000000000000000, 0.000000000000000000, 1.000000000000000000 ) ) ;
#110 = DIRECTION ( 'NONE',  ( 1.000000000000000000, 1.224646799147353454E-16, -0.000000000000000000 ) ) ;
#111 = CC_DESIGN_PERSON_AND_ORGANIZATION_ASSIGNMENT ( #72, #46, ( #204 ) ) ;
#112 =( LENGTH_UNIT ( ) NAMED_UNIT ( * ) SI_UNIT ( .MILLI., .METRE. ) );
#113 = AXIS2_PLACEMENT_3D ( 'NONE', #143, #115, #293 ) ;
#114 = FACE_OUTER_BOUND ( 'NONE', #120, .T. ) ;
#115 = DIRECTION ( 'NONE',  ( -1.000000000000000000, -1.224646799147353454E-16, 0.000000000000000000 ) ) ;
#116 = APPROVAL ( #29, 'UNSPECIFIED' ) ;
#117 = CIRCLE ( 'NONE', #221, 5.099999999999985434 ) ;
#118 =( NAMED_UNIT ( * ) PLANE_ANGLE_UNIT ( ) SI_UNIT ( $, .RADIAN. ) );
#119 = DATE_AND_TIME ( #281, #130 ) ;
#120 = EDGE_LOOP ( 'NONE', ( #35 ) ) ;
#121 = ADVANCED_FACE ( 'NONE', ( #224, #222 ), #17, .F. ) ;
#122 = EDGE_LOOP ( 'NONE', ( #171 ) ) ;
#123 = AXIS2_PLACEMENT_3D ( 'NONE', #223, #288, #226 ) ;
#124 = DATE_AND_TIME ( #31, #40 ) ;
#125 = EDGE_LOOP ( 'NONE', ( #190 ) ) ;
#126 = DATE_TIME_ROLE ( 'classification_date' ) ;
#127 = EDGE_LOOP ( 'NONE', ( #128 ) ) ;
#128 = ORIENTED_EDGE ( 'NONE', *, *, #220, .F. ) ;
#129 = CARTESIAN_POINT ( 'NONE',  ( 280.0000000000000000, 3.980102097228899257E-14, 0.000000000000000000 ) ) ;
#130 = LOCAL_TIME ( 12, 15, 29.00000000000000000, #263 ) ;
#131 = FACE_OUTER_BOUND ( 'NONE', #125, .T. ) ;
#132 = DIRECTION ( 'NONE',  ( 0.000000000000000000, 0.000000000000000000, 1.000000000000000000 ) ) ;
#133 = DIRECTION ( 'NONE',  ( 0.000000000000000000, 0.000000000000000000, -1.000000000000000000 ) ) ;
#134 = CIRCLE ( 'NONE', #90, 5.099999999999987210 ) ;
#135 = CARTESIAN_POINT ( 'NONE',  ( 0.000000000000000000, -1.898202538678398267E-14, 0.000000000000000000 ) ) ;
#136 = ADVANCED_FACE ( 'NONE', ( #82, #105 ), #246, .T. ) ;
#137 = CARTESIAN_POINT ( 'NONE',  ( 305.0000000000000000, 3.980102097228899257E-14, -5.099999999999987210 ) ) ;
#138 = AXIS2_PLACEMENT_3D ( 'NONE', #91, #1, #185 ) ;
#139 = CARTESIAN_POINT ( 'NONE',  ( 300.0000000000000000, -1.898202538678398267E-14, -40.00000000000000711 ) ) ;
#140 = CC_DESIGN_DATE_AND_TIME_ASSIGNMENT ( #124, #126, ( #13 ) ) ;
#141 = PRODUCT_DEFINITION_SHAPE ( 'NONE', 'NONE',  #20 ) ;
#142 = ADVANCED_BREP_SHAPE_REPRESENTATION ( '250729 STEP 3-400289-01_17642', ( #195, #138 ), #39 ) ;
#143 = CARTESIAN_POINT ( 'NONE',  ( -5.000000000000004441, -1.959434878635765210E-14, 0.000000000000000000 ) ) ;
#144 = PLANE ( 'NONE',  #113 ) ;
#145 = CIRCLE ( 'NONE', #233, 12.50000000000000888 ) ;
#146 = EDGE_CURVE ( 'NONE', #206, #206, #145, .T. ) ;
#147 = APPROVAL ( #172, 'UNSPECIFIED' ) ;
#148 = FACE_OUTER_BOUND ( 'NONE', #127, .T. ) ;
#149 = EDGE_LOOP ( 'NONE', ( #10 ) ) ;
#150 = AXIS2_PLACEMENT_3D ( 'NONE', #7, #178, #86 ) ;
#151 = PERSON_AND_ORGANIZATION ( #189, #6 ) ;
#152 = ORIENTED_EDGE ( 'NONE', *, *, #2, .F. ) ;
#153 = DATE_AND_TIME ( #197, #244 ) ;
#154 = EDGE_LOOP ( 'NONE', ( #262 ) ) ;
#155 = ORIENTED_EDGE ( 'NONE', *, *, #165, .F. ) ;
#156 = EDGE_CURVE ( 'NONE', #231, #231, #228, .T. ) ;
#157 = DIRECTION ( 'NONE',  ( 0.000000000000000000, 0.000000000000000000, -1.000000000000000000 ) ) ;
#158 = DIRECTION ( 'NONE',  ( -1.224646799147353454E-16, 1.000000000000000000, 0.000000000000000000 ) ) ;
#159 = FACE_OUTER_BOUND ( 'NONE', #32, .T. ) ;
#160 = DIRECTION ( 'NONE',  ( -0.000000000000000000, 0.000000000000000000, 1.000000000000000000 ) ) ;
#161 = CARTESIAN_POINT ( 'NONE',  ( 3.410943655498290626E-13, 39.99999999999998579, 0.000000000000000000 ) ) ;
#162 = UNCERTAINTY_MEASURE_WITH_UNIT (LENGTH_MEASURE( 1.000000000000000082E-05 ), #112, 'distance_accuracy_value', 'NONE');
#163 = FACE_BOUND ( 'NONE', #260, .T. ) ;
#164 = CARTESIAN_POINT ( 'NONE',  ( -5.000000000000004441, 1.836970198721028800E-15, 0.000000000000000000 ) ) ;
#165 = EDGE_CURVE ( 'NONE', #27, #27, #225, .T. ) ;
#166 = APPROVAL_DATE_TIME ( #153, #116 ) ;
#167 = AXIS2_PLACEMENT_3D ( 'NONE', #81, #42, #19 ) ;
#168 = PERSON_AND_ORGANIZATION ( #189, #6 ) ;
#169 = EDGE_LOOP ( 'NONE', ( #218 ) ) ;
#170 = CALENDAR_DATE ( 2025, 29, 7 ) ;
#171 = ORIENTED_EDGE ( 'NONE', *, *, #235, .F. ) ;
#172 = APPROVAL_STATUS ( 'not_yet_approved' ) ;
#173 = EDGE_LOOP ( 'NONE', ( #76 ) ) ;
#174 = CYLINDRICAL_SURFACE ( 'NONE', #102, 40.00000000000000000 ) ;
#175 = EDGE_CURVE ( 'NONE', #26, #26, #134, .T. ) ;
#176 = CARTESIAN_POINT ( 'NONE',  ( 19.99999999999998934, 1.836970198721028800E-15, 0.000000000000000000 ) ) ;
#177 = APPROVAL_PERSON_ORGANIZATION ( #277, #59, #193 ) ;
#178 = DIRECTION ( 'NONE',  ( 1.000000000000000000, -0.000000000000000000, -0.000000000000000000 ) ) ;
#179 = CARTESIAN_POINT ( 'NONE',  ( 300.0000000000000000, 1.775737858763662173E-14, 0.000000000000000000 ) ) ;
#180 = ADVANCED_FACE ( 'NONE', ( #131 ), #279, .F. ) ;
#181 = CARTESIAN_POINT ( 'NONE',  ( 0.000000000000000000, 30.99999999999999289, 0.000000000000000000 ) ) ;
#182 = CC_DESIGN_PERSON_AND_ORGANIZATION_ASSIGNMENT ( #151, #238, ( #83 ) ) ;
#183 = DIRECTION ( 'NONE',  ( 0.000000000000000000, 0.000000000000000000, 1.000000000000000000 ) ) ;
#184 = CLOSED_SHELL ( 'NONE', ( #240, #121, #28, #180, #48, #68, #136, #258, #274, #287, #187 ) ) ;
#185 = DIRECTION ( 'NONE',  ( 1.000000000000000000, 0.000000000000000000, 0.000000000000000000 ) ) ;
#186 = AXIS2_PLACEMENT_3D ( 'NONE', #199, #200, #270 ) ;
#187 = ADVANCED_FACE ( 'NONE', ( #286, #289 ), #291, .T. ) ;
#188 = FACE_OUTER_BOUND ( 'NONE', #219, .T. ) ;
#189 = PERSON ( 'UNSPECIFIED', 'UNSPECIFIED', 'UNSPECIFIED', ('UNSPECIFIED'), ('UNSPECIFIED'), ('UNSPECIFIED') ) ;
#190 = ORIENTED_EDGE ( 'NONE', *, *, #220, .T. ) ;
#191 = AXIS2_PLACEMENT_3D ( 'NONE', #181, #64, #61 ) ;
#192 = DATE_AND_TIME ( #285, #95 ) ;
#193 = APPROVAL_ROLE ( '' ) ;
#194 = EDGE_LOOP ( 'NONE', ( #77 ) ) ;
#195 = MANIFOLD_SOLID_BREP ( 'DeleteFace1', #184 ) ;
#196 = CARTESIAN_POINT ( 'NONE',  ( 3.191891195797325054E-13, -1.898202538678398267E-14, 0.000000000000000000 ) ) ;
#197 = CALENDAR_DATE ( 2025, 29, 7 ) ;
#198 = FACE_OUTER_BOUND ( 'NONE', #194, .T. ) ;
#199 = CARTESIAN_POINT ( 'NONE',  ( 305.0000000000000000, 1.836970198721030062E-14, 0.000000000000000000 ) ) ;
#200 = DIRECTION ( 'NONE',  ( 1.000000000000000000, 1.224646799147353454E-16, -0.000000000000000000 ) ) ;
#201 = DIRECTION ( 'NONE',  ( 0.000000000000000000, 0.000000000000000000, -1.000000000000000000 ) ) ;
#202 = CARTESIAN_POINT ( 'NONE',  ( -5.000000000000004441, 1.836970198721028800E-15, 0.000000000000000000 ) ) ;
#203 = CARTESIAN_POINT ( 'NONE',  ( 305.0000000000000000, 1.836970198721030062E-14, 0.000000000000000000 ) ) ;
#204 = PRODUCT ( '250729 STEP 3-400289-01_17642', '250729 STEP 3-400289-01_17642', '', ( #232 ) ) ;
#205 = AXIS2_PLACEMENT_3D ( 'NONE', #164, #208, #70 ) ;
#206 = VERTEX_POINT ( 'NONE', #89 ) ;
#207 = EDGE_CURVE ( 'NONE', #254, #254, #94, .T. ) ;
#208 = DIRECTION ( 'NONE',  ( -1.000000000000000000, -0.000000000000000000, -0.000000000000000000 ) ) ;
#209 = CARTESIAN_POINT ( 'NONE',  ( -5.000000000000006217, 12.49999999999999112, 0.000000000000000000 ) ) ;
#210 = VERTEX_POINT ( 'NONE', #25 ) ;
#211 = CIRCLE ( 'NONE', #249, 5.099999999999984546 ) ;
#212 = SECURITY_CLASSIFICATION_LEVEL ( 'unclassified' ) ;
#213 = ORIENTED_EDGE ( 'NONE', *, *, #156, .T. ) ;
#214 = DATE_TIME_ROLE ( 'creation_date' ) ;
#215 = CYLINDRICAL_SURFACE ( 'NONE', #150, 5.099999999999986322 ) ;
#216 = AXIS2_PLACEMENT_3D ( 'NONE', #45, #245, #158 ) ;
#217 = ORIENTED_EDGE ( 'NONE', *, *, #235, .T. ) ;
#218 = ORIENTED_EDGE ( 'NONE', *, *, #2, .T. ) ;
#219 = EDGE_LOOP ( 'NONE', ( #282 ) ) ;
#220 = EDGE_CURVE ( 'NONE', #230, #230, #211, .T. ) ;
#221 = AXIS2_PLACEMENT_3D ( 'NONE', #176, #267, #109 ) ;
#222 = FACE_BOUND ( 'NONE', #97, .T. ) ;
#223 = CARTESIAN_POINT ( 'NONE',  ( 280.0000000000000000, 3.980102097228899257E-14, 0.000000000000000000 ) ) ;
#224 = FACE_OUTER_BOUND ( 'NONE', #149, .T. ) ;
#225 = CIRCLE ( 'NONE', #52, 5.099999999999987210 ) ;
#226 = DIRECTION ( 'NONE',  ( 0.000000000000000000, 0.000000000000000000, -1.000000000000000000 ) ) ;
#227 = DIRECTION ( 'NONE',  ( -1.000000000000000000, -0.000000000000000000, -0.000000000000000000 ) ) ;
#228 = CIRCLE ( 'NONE', #23, 12.50000000000000888 ) ;
#229 =( NAMED_UNIT ( * ) SI_UNIT ( $, .STERADIAN. ) SOLID_ANGLE_UNIT ( ) );
#230 = VERTEX_POINT ( 'NONE', #47 ) ;
#231 = VERTEX_POINT ( 'NONE', #295 ) ;
#232 = MECHANICAL_CONTEXT ( 'NONE', #50, 'mechanical' ) ;
#233 = AXIS2_PLACEMENT_3D ( 'NONE', #135, #276, #201 ) ;
#234 = FACE_OUTER_BOUND ( 'NONE', #57, .T. ) ;
#235 = EDGE_CURVE ( 'NONE', #210, #210, #117, .T. ) ;
#236 = ORIENTED_EDGE ( 'NONE', *, *, #207, .T. ) ;
#237 = APPROVAL_PERSON_ORGANIZATION ( #5, #116, #73 ) ;
#238 = PERSON_AND_ORGANIZATION_ROLE ( 'creator' ) ;
#239 = PERSON_AND_ORGANIZATION_ROLE ( 'design_supplier' ) ;
#240 = ADVANCED_FACE ( 'NONE', ( #290, #85 ), #272, .F. ) ;
#241 = FACE_OUTER_BOUND ( 'NONE', #98, .T. ) ;
#242 = DIRECTION ( 'NONE',  ( 0.000000000000000000, 0.000000000000000000, 1.000000000000000000 ) ) ;
#243 = AXIS2_PLACEMENT_3D ( 'NONE', #250, #110, #41 ) ;
#244 = LOCAL_TIME ( 12, 15, 29.00000000000000000, #101 ) ;
#245 = DIRECTION ( 'NONE',  ( 1.000000000000000000, 1.224646799147353454E-16, -0.000000000000000000 ) ) ;
#246 = CYLINDRICAL_SURFACE ( 'NONE', #186, 12.50000000000000888 ) ;
#247 = CC_DESIGN_PERSON_AND_ORGANIZATION_ASSIGNMENT ( #168, #99, ( #13 ) ) ;
#248 = DIRECTION ( 'NONE',  ( 0.000000000000000000, 1.000000000000000000, 0.000000000000000000 ) ) ;
#249 = AXIS2_PLACEMENT_3D ( 'NONE', #129, #271, #133 ) ;
#250 = CARTESIAN_POINT ( 'NONE',  ( -5.000000000000004441, -1.959434878635765841E-14, 0.000000000000000000 ) ) ;
#251 = CIRCLE ( 'NONE', #273, 40.00000000000000711 ) ;
#252 = VERTEX_POINT ( 'NONE', #161 ) ;
#253 = CC_DESIGN_SECURITY_CLASSIFICATION ( #13, ( #83 ) ) ;
#254 = VERTEX_POINT ( 'NONE', #49 ) ;
#255 = CARTESIAN_POINT ( 'NONE',  ( -5.000000000000004441, 1.836970198721028800E-15, 5.099999999999987210 ) ) ;
#256 = AXIS2_PLACEMENT_3D ( 'NONE', #16, #227, #22 ) ;
#257 = DIRECTION ( 'NONE',  ( 0.000000000000000000, 0.000000000000000000, -1.000000000000000000 ) ) ;
#258 = ADVANCED_FACE ( 'NONE', ( #159 ), #292, .F. ) ;
#259 = APPROVAL_DATE_TIME ( #261, #59 ) ;
#260 = EDGE_LOOP ( 'NONE', ( #60 ) ) ;
#261 = DATE_AND_TIME ( #170, #65 ) ;
#262 = ORIENTED_EDGE ( 'NONE', *, *, #146, .T. ) ;
#263 = COORDINATED_UNIVERSAL_TIME_OFFSET ( 2, 0, .AHEAD. ) ;
#264 = DIRECTION ( 'NONE',  ( -1.000000000000000000, 5.476311492524131615E-16, -5.901049786335053406E-17 ) ) ;
#265 = PRODUCT_RELATED_PRODUCT_CATEGORY ( 'detail', '', ( #204 ) ) ;
#266 = DIRECTION ( 'NONE',  ( -1.000000000000000000, -0.000000000000000000, -0.000000000000000000 ) ) ;
#267 = DIRECTION ( 'NONE',  ( -1.000000000000000000, -0.000000000000000000, -0.000000000000000000 ) ) ;
#268 = CC_DESIGN_APPROVAL ( #147, ( #13 ) ) ;
#269 = CC_DESIGN_PERSON_AND_ORGANIZATION_ASSIGNMENT ( #55, #30, ( #20 ) ) ;
#270 = DIRECTION ( 'NONE',  ( 0.000000000000000000, 1.000000000000000000, 0.000000000000000000 ) ) ;
#271 = DIRECTION ( 'NONE',  ( 1.000000000000000000, -0.000000000000000000, -0.000000000000000000 ) ) ;
#272 = PLANE ( 'NONE',  #191 ) ;
#273 = AXIS2_PLACEMENT_3D ( 'NONE', #284, #79, #257 ) ;
#274 = ADVANCED_FACE ( 'NONE', ( #24, #114 ), #69, .F. ) ;
#275 = DESIGN_CONTEXT ( 'detailed design', #106, 'design' ) ;
#276 = DIRECTION ( 'NONE',  ( 1.000000000000000000, 0.000000000000000000, 0.000000000000000000 ) ) ;
#277 = PERSON_AND_ORGANIZATION ( #189, #6 ) ;
#278 = VERTEX_POINT ( 'NONE', #209 ) ;
#279 = CONICAL_SURFACE ( 'NONE', #123, 5.099999999999984546, 1.029744258676653867 ) ;
#280 = EDGE_LOOP ( 'NONE', ( #8 ) ) ;
#281 = CALENDAR_DATE ( 2025, 29, 7 ) ;
#282 = ORIENTED_EDGE ( 'NONE', *, *, #100, .F. ) ;
#283 = PERSON_AND_ORGANIZATION ( #189, #6 ) ;
#284 = CARTESIAN_POINT ( 'NONE',  ( 300.0000000000000000, -1.898202538678398267E-14, 0.000000000000000000 ) ) ;
#285 = CALENDAR_DATE ( 2025, 29, 7 ) ;
#286 = FACE_OUTER_BOUND ( 'NONE', #280, .T. ) ;
#287 = ADVANCED_FACE ( 'NONE', ( #163, #188 ), #144, .T. ) ;
#288 = DIRECTION ( 'NONE',  ( 1.000000000000000000, -0.000000000000000000, -0.000000000000000000 ) ) ;
#289 = FACE_OUTER_BOUND ( 'NONE', #173, .T. ) ;
#290 = FACE_OUTER_BOUND ( 'NONE', #169, .T. ) ;
#291 = CYLINDRICAL_SURFACE ( 'NONE', #167, 12.50000000000000888 ) ;
#292 = CONICAL_SURFACE ( 'NONE', #256, 5.099999999999985434, 1.029744258676654090 ) ;
#293 = DIRECTION ( 'NONE',  ( 1.224646799147353454E-16, -1.000000000000000000, 0.000000000000000000 ) ) ;
#294 = CC_DESIGN_PERSON_AND_ORGANIZATION_ASSIGNMENT ( #283, #239, ( #83 ) ) ;
#295 = CARTESIAN_POINT ( 'NONE',  ( 305.0000000000000000, 12.50000000000002842, 0.000000000000000000 ) ) ;
ENDSEC;
END-ISO-10303-21;
