ISO-10303-21;
HEADER;
FILE_DESCRIPTION (( 'STEP AP203' ),
    '1' );
FILE_NAME ('250701 STEP 6907.STEP',
    '2025-07-01T11:36:10',
    ( '' ),
    ( '' ),
    'SwSTEP 2.0',
    'SolidWorks 2024',
    '' );
FILE_SCHEMA (( 'CONFIG_CONTROL_DESIGN' ));
ENDSEC;

DATA;
#1 = EDGE_LOOP ( 'NONE', ( #185 ) ) ;
#2 = DIRECTION ( 'NONE',  ( 0.000000000000000000, 0.000000000000000000, 1.000000000000000000 ) ) ;
#3 = ORIENTED_EDGE ( 'NONE', *, *, #5, .F. ) ;
#4 =( NAMED_UNIT ( * ) SI_UNIT ( $, .STERADIAN. ) SOLID_ANGLE_UNIT ( ) );
#5 = EDGE_CURVE ( 'NONE', #237, #237, #126, .T. ) ;
#6 = APPROVAL_PERSON_ORGANIZATION ( #242, #217, #224 ) ;
#7 = FACE_OUTER_BOUND ( 'NONE', #177, .T. ) ;
#8 = CARTESIAN_POINT ( 'NONE',  ( 0.000000000000000000, 0.000000000000000000, 0.000000000000000000 ) ) ;
#9 = VERTEX_POINT ( 'NONE', #239 ) ;
#10 = CALENDAR_DATE ( 2025, 1, 7 ) ;
#11 = DESIGN_CONTEXT ( 'detailed design', #186, 'design' ) ;
#12 = PERSON_AND_ORGANIZATION ( #64, #195 ) ;
#13 = DATE_TIME_ROLE ( 'creation_date' ) ;
#14 = AXIS2_PLACEMENT_3D ( 'NONE', #76, #40, #189 ) ;
#15 = EDGE_LOOP ( 'NONE', ( #128 ) ) ;
#16 = AXIS2_PLACEMENT_3D ( 'NONE', #8, #28, #153 ) ;
#17 = EDGE_LOOP ( 'NONE', ( #21 ) ) ;
#18 = DIRECTION ( 'NONE',  ( -0.000000000000000000, -0.000000000000000000, 1.000000000000000000 ) ) ;
#19 = FACE_OUTER_BOUND ( 'NONE', #55, .T. ) ;
#20 = AXIS2_PLACEMENT_3D ( 'NONE', #57, #93, #92 ) ;
#21 = ORIENTED_EDGE ( 'NONE', *, *, #172, .T. ) ;
#22 = ORIENTED_EDGE ( 'NONE', *, *, #91, .F. ) ;
#23 = CC_DESIGN_DATE_AND_TIME_ASSIGNMENT ( #159, #13, ( #78 ) ) ;
#24 = CARTESIAN_POINT ( 'NONE',  ( 42.50000000000000711, 0.000000000000000000, -3.029095842432356189 ) ) ;
#25 = AXIS2_PLACEMENT_3D ( 'NONE', #94, #75, #107 ) ;
#26 = VERTEX_POINT ( 'NONE', #62 ) ;
#27 = CARTESIAN_POINT ( 'NONE',  ( 0.000000000000000000, 0.000000000000000000, -3.029095842432356189 ) ) ;
#28 = DIRECTION ( 'NONE',  ( -0.000000000000000000, -0.000000000000000000, 1.000000000000000000 ) ) ;
#29 = AXIS2_PLACEMENT_3D ( 'NONE', #129, #53, #125 ) ;
#30 = CALENDAR_DATE ( 2025, 1, 7 ) ;
#31 = DATE_AND_TIME ( #121, #183 ) ;
#32 = COORDINATED_UNIVERSAL_TIME_OFFSET ( 2, 0, .AHEAD. ) ;
#33 = PERSON_AND_ORGANIZATION ( #64, #195 ) ;
#34 = CC_DESIGN_APPROVAL ( #217, ( #178 ) ) ;
#35 = FACE_BOUND ( 'NONE', #167, .T. ) ;
#36 = EDGE_LOOP ( 'NONE', ( #112 ) ) ;
#37 = EDGE_LOOP ( 'NONE', ( #3 ) ) ;
#38 = ORIENTED_EDGE ( 'NONE', *, *, #77, .T. ) ;
#39 = DIRECTION ( 'NONE',  ( 1.000000000000000000, 0.000000000000000000, 0.000000000000000000 ) ) ;
#40 = DIRECTION ( 'NONE',  ( 0.000000000000000000, 0.000000000000000000, -1.000000000000000000 ) ) ;
#41 = FACE_OUTER_BOUND ( 'NONE', #149, .T. ) ;
#42 = DIRECTION ( 'NONE',  ( -1.000000000000000000, 0.000000000000000000, 0.000000000000000000 ) ) ;
#43 = ORIENTED_EDGE ( 'NONE', *, *, #246, .F. ) ;
#44 = CARTESIAN_POINT ( 'NONE',  ( 0.000000000000000000, 0.000000000000000000, -6.500000000000000000 ) ) ;
#45 = AXIS2_PLACEMENT_3D ( 'NONE', #27, #214, #157 ) ;
#46 = EDGE_CURVE ( 'NONE', #26, #26, #109, .T. ) ;
#47 = MECHANICAL_CONTEXT ( 'NONE', #220, 'mechanical' ) ;
#48 = DATE_AND_TIME ( #100, #140 ) ;
#49 = APPROVAL_STATUS ( 'not_yet_approved' ) ;
#50 = CIRCLE ( 'NONE', #45, 42.50000000000000711 ) ;
#51 = CC_DESIGN_PERSON_AND_ORGANIZATION_ASSIGNMENT ( #142, #162, ( #178 ) ) ;
#52 = PERSON_AND_ORGANIZATION ( #64, #195 ) ;
#53 = DIRECTION ( 'NONE',  ( 0.000000000000000000, 0.000000000000000000, 1.000000000000000000 ) ) ;
#54 = EDGE_CURVE ( 'NONE', #171, #171, #210, .T. ) ;
#55 = EDGE_LOOP ( 'NONE', ( #72 ) ) ;
#56 = CARTESIAN_POINT ( 'NONE',  ( 0.000000000000000000, 0.000000000000000000, 6.500000000000000000 ) ) ;
#57 = CARTESIAN_POINT ( 'NONE',  ( 0.000000000000000000, 0.000000000000000000, -2.801184896238297029 ) ) ;
#58 = DIRECTION ( 'NONE',  ( -0.000000000000000000, -0.000000000000000000, -1.000000000000000000 ) ) ;
#59 = LOCAL_TIME ( 14, 36, 10.00000000000000000, #158 ) ;
#60 = CC_DESIGN_PERSON_AND_ORGANIZATION_ASSIGNMENT ( #12, #68, ( #78 ) ) ;
#61 =( GEOMETRIC_REPRESENTATION_CONTEXT ( 3 ) GLOBAL_UNCERTAINTY_ASSIGNED_CONTEXT ( ( #170 ) ) GLOBAL_UNIT_ASSIGNED_CONTEXT ( ( #114, #115, #4 ) ) REPRESENTATION_CONTEXT ( 'NONE', 'WORKASPACE' ) );
#62 = CARTESIAN_POINT ( 'NONE',  ( 42.50000000000000711, 0.000000000000000000, 3.029095842432356189 ) ) ;
#63 = FACE_OUTER_BOUND ( 'NONE', #36, .T. ) ;
#64 = PERSON ( 'UNSPECIFIED', 'UNSPECIFIED', 'UNSPECIFIED', ('UNSPECIFIED'), ('UNSPECIFIED'), ('UNSPECIFIED') ) ;
#65 = ORIENTED_EDGE ( 'NONE', *, *, #246, .T. ) ;
#66 = FACE_BOUND ( 'NONE', #17, .T. ) ;
#67 = AXIS2_PLACEMENT_3D ( 'NONE', #236, #156, #42 ) ;
#68 = PERSON_AND_ORGANIZATION_ROLE ( 'creator' ) ;
#69 = DATE_AND_TIME ( #10, #105 ) ;
#70 = AXIS2_PLACEMENT_3D ( 'NONE', #89, #18, #73 ) ;
#71 = FACE_OUTER_BOUND ( 'NONE', #1, .T. ) ;
#72 = ORIENTED_EDGE ( 'NONE', *, *, #54, .F. ) ;
#73 = DIRECTION ( 'NONE',  ( 1.000000000000000000, 0.000000000000000000, 0.000000000000000000 ) ) ;
#74 = CARTESIAN_POINT ( 'NONE',  ( 0.000000000000000000, 0.000000000000000000, 3.029095842432356189 ) ) ;
#75 = DIRECTION ( 'NONE',  ( 0.000000000000000000, 0.000000000000000000, 1.000000000000000000 ) ) ;
#76 = CARTESIAN_POINT ( 'NONE',  ( 0.000000000000000000, 0.000000000000000000, -2.801184896238297029 ) ) ;
#77 = EDGE_CURVE ( 'NONE', #9, #9, #132, .T. ) ;
#78 = PRODUCT_DEFINITION ( 'UNKNOWN', '', #223, #11 ) ;
#79 = CC_DESIGN_SECURITY_CLASSIFICATION ( #178, ( #223 ) ) ;
#80 = VERTEX_POINT ( 'NONE', #24 ) ;
#81 = SHAPE_DEFINITION_REPRESENTATION ( #208, #248 ) ;
#82 = APPROVAL ( #200, 'UNSPECIFIED' ) ;
#83 = APPROVAL_ROLE ( '' ) ;
#84 = PERSON_AND_ORGANIZATION_ROLE ( 'design_supplier' ) ;
#85 = APPROVAL_PERSON_ORGANIZATION ( #173, #123, #124 ) ;
#86 = EDGE_LOOP ( 'NONE', ( #216 ) ) ;
#87 = CC_DESIGN_PERSON_AND_ORGANIZATION_ASSIGNMENT ( #33, #197, ( #223 ) ) ;
#88 = DIRECTION ( 'NONE',  ( 0.000000000000000000, 0.000000000000000000, 1.000000000000000000 ) ) ;
#89 = CARTESIAN_POINT ( 'NONE',  ( 0.000000000000000000, 0.000000000000000000, 3.029095842432356189 ) ) ;
#90 = MANIFOLD_SOLID_BREP ( 'Cut-Revolve1', #98 ) ;
#91 = EDGE_CURVE ( 'NONE', #192, #192, #111, .T. ) ;
#92 = DIRECTION ( 'NONE',  ( 1.000000000000000000, 0.000000000000000000, 0.000000000000000000 ) ) ;
#93 = DIRECTION ( 'NONE',  ( -0.000000000000000000, -0.000000000000000000, 1.000000000000000000 ) ) ;
#94 = CARTESIAN_POINT ( 'NONE',  ( 0.000000000000000000, 0.000000000000000000, 6.500000000000000000 ) ) ;
#95 = LOCAL_TIME ( 14, 36, 10.00000000000000000, #102 ) ;
#96 = VERTEX_POINT ( 'NONE', #187 ) ;
#97 = DIRECTION ( 'NONE',  ( 0.000000000000000000, 0.000000000000000000, 1.000000000000000000 ) ) ;
#98 = CLOSED_SHELL ( 'NONE', ( #241, #148, #206, #221, #226, #230, #180, #209 ) ) ;
#99 = CIRCLE ( 'NONE', #130, 14.00000000000000178 ) ;
#100 = CALENDAR_DATE ( 2025, 1, 7 ) ;
#101 = SECURITY_CLASSIFICATION_LEVEL ( 'unclassified' ) ;
#102 = COORDINATED_UNIVERSAL_TIME_OFFSET ( 2, 0, .AHEAD. ) ;
#103 = CC_DESIGN_PERSON_AND_ORGANIZATION_ASSIGNMENT ( #161, #84, ( #223 ) ) ;
#104 = APPLICATION_PROTOCOL_DEFINITION ( 'international standard', 'config_control_design', 1994, #186 ) ;
#105 = LOCAL_TIME ( 14, 36, 10.00000000000000000, #32 ) ;
#106 = PLANE ( 'NONE',  #163 ) ;
#107 = DIRECTION ( 'NONE',  ( 1.000000000000000000, 0.000000000000000000, 0.000000000000000000 ) ) ;
#108 = ORIENTED_EDGE ( 'NONE', *, *, #54, .T. ) ;
#109 = CIRCLE ( 'NONE', #70, 42.50000000000000711 ) ;
#110 = DIRECTION ( 'NONE',  ( 0.000000000000000000, 0.000000000000000000, 1.000000000000000000 ) ) ;
#111 = CIRCLE ( 'NONE', #20, 41.64942476920268177 ) ;
#112 = ORIENTED_EDGE ( 'NONE', *, *, #172, .F. ) ;
#113 = CARTESIAN_POINT ( 'NONE',  ( 41.64942476920268177, 0.000000000000000000, 2.801184896238297029 ) ) ;
#114 =( LENGTH_UNIT ( ) NAMED_UNIT ( * ) SI_UNIT ( .MILLI., .METRE. ) );
#115 =( NAMED_UNIT ( * ) PLANE_ANGLE_UNIT ( ) SI_UNIT ( $, .RADIAN. ) );
#116 = CARTESIAN_POINT ( 'NONE',  ( 42.50000000000000711, 0.000000000000000000, 6.500000000000000000 ) ) ;
#117 = EDGE_LOOP ( 'NONE', ( #43 ) ) ;
#118 = CARTESIAN_POINT ( 'NONE',  ( 41.64942476920268177, 0.000000000000000000, -2.801184896238297029 ) ) ;
#119 = TOROIDAL_SURFACE ( 'NONE', #16, 42.39999999999999858, 2.900000000000000355 ) ;
#120 = CARTESIAN_POINT ( 'NONE',  ( 0.000000000000000000, 0.000000000000000000, 0.000000000000000000 ) ) ;
#121 = CALENDAR_DATE ( 2025, 1, 7 ) ;
#122 = DIRECTION ( 'NONE',  ( 1.000000000000000000, 0.000000000000000000, 0.000000000000000000 ) ) ;
#123 = APPROVAL ( #49, 'UNSPECIFIED' ) ;
#124 = APPROVAL_ROLE ( '' ) ;
#125 = DIRECTION ( 'NONE',  ( 1.000000000000000000, 0.000000000000000000, 0.000000000000000000 ) ) ;
#126 = CIRCLE ( 'NONE', #211, 41.64942476920268177 ) ;
#127 = FACE_OUTER_BOUND ( 'NONE', #86, .T. ) ;
#128 = ORIENTED_EDGE ( 'NONE', *, *, #46, .T. ) ;
#129 = CARTESIAN_POINT ( 'NONE',  ( 0.000000000000000000, 0.000000000000000000, -6.500000000000000000 ) ) ;
#130 = AXIS2_PLACEMENT_3D ( 'NONE', #212, #2, #39 ) ;
#131 = DIRECTION ( 'NONE',  ( -1.000000000000000000, 0.000000000000000000, 0.000000000000000000 ) ) ;
#132 = CIRCLE ( 'NONE', #233, 14.00000000000000178 ) ;
#133 = CYLINDRICAL_SURFACE ( 'NONE', #67, 42.50000000000000711 ) ;
#134 = CC_DESIGN_PERSON_AND_ORGANIZATION_ASSIGNMENT ( #52, #240, ( #225 ) ) ;
#135 = CARTESIAN_POINT ( 'NONE',  ( 14.00000000000000178, 0.000000000000000000, -6.500000000000000000 ) ) ;
#136 = PLANE ( 'NONE',  #245 ) ;
#137 = DIRECTION ( 'NONE',  ( 1.000000000000000000, 0.000000000000000000, -0.000000000000000000 ) ) ;
#138 = DIRECTION ( 'NONE',  ( -0.000000000000000000, -0.000000000000000000, -1.000000000000000000 ) ) ;
#139 = APPROVAL_DATE_TIME ( #199, #123 ) ;
#140 = LOCAL_TIME ( 14, 36, 10.00000000000000000, #222 ) ;
#141 = PERSON_AND_ORGANIZATION ( #64, #195 ) ;
#142 = PERSON_AND_ORGANIZATION ( #64, #195 ) ;
#143 = APPROVAL_PERSON_ORGANIZATION ( #141, #82, #83 ) ;
#144 = CONICAL_SURFACE ( 'NONE', #203, 42.50000000000000711, 1.308996938995746984 ) ;
#145 = APPROVAL_DATE_TIME ( #48, #217 ) ;
#146 = CYLINDRICAL_SURFACE ( 'NONE', #244, 42.50000000000000711 ) ;
#147 = EDGE_LOOP ( 'NONE', ( #207 ) ) ;
#148 = ADVANCED_FACE ( 'NONE', ( #19, #165 ), #146, .T. ) ;
#149 = EDGE_LOOP ( 'NONE', ( #205 ) ) ;
#150 = DIRECTION ( 'NONE',  ( -0.000000000000000000, -0.000000000000000000, 1.000000000000000000 ) ) ;
#151 = EDGE_LOOP ( 'NONE', ( #108 ) ) ;
#152 = CC_DESIGN_APPROVAL ( #82, ( #223 ) ) ;
#153 = DIRECTION ( 'NONE',  ( 1.000000000000000000, 0.000000000000000000, 0.000000000000000000 ) ) ;
#154 = AXIS2_PLACEMENT_3D ( 'NONE', #168, #138, #213 ) ;
#155 = FACE_OUTER_BOUND ( 'NONE', #117, .T. ) ;
#156 = DIRECTION ( 'NONE',  ( -0.000000000000000000, -0.000000000000000000, -1.000000000000000000 ) ) ;
#157 = DIRECTION ( 'NONE',  ( 1.000000000000000000, 0.000000000000000000, 0.000000000000000000 ) ) ;
#158 = COORDINATED_UNIVERSAL_TIME_OFFSET ( 2, 0, .AHEAD. ) ;
#159 = DATE_AND_TIME ( #30, #95 ) ;
#160 = CIRCLE ( 'NONE', #29, 42.50000000000000711 ) ;
#161 = PERSON_AND_ORGANIZATION ( #64, #195 ) ;
#162 = PERSON_AND_ORGANIZATION_ROLE ( 'classification_officer' ) ;
#163 = AXIS2_PLACEMENT_3D ( 'NONE', #179, #88, #164 ) ;
#164 = DIRECTION ( 'NONE',  ( 1.000000000000000000, 0.000000000000000000, -0.000000000000000000 ) ) ;
#165 = FACE_OUTER_BOUND ( 'NONE', #15, .T. ) ;
#166 = EDGE_LOOP ( 'NONE', ( #38 ) ) ;
#167 = EDGE_LOOP ( 'NONE', ( #228 ) ) ;
#168 = CARTESIAN_POINT ( 'NONE',  ( 0.000000000000000000, 0.000000000000000000, 6.500000000000000000 ) ) ;
#169 = FACE_OUTER_BOUND ( 'NONE', #166, .T. ) ;
#170 = UNCERTAINTY_MEASURE_WITH_UNIT (LENGTH_MEASURE( 1.000000000000000082E-05 ), #114, 'distance_accuracy_value', 'NONE');
#171 = VERTEX_POINT ( 'NONE', #116 ) ;
#172 = EDGE_CURVE ( 'NONE', #194, #194, #99, .T. ) ;
#173 = PERSON_AND_ORGANIZATION ( #64, #195 ) ;
#174 = APPROVAL_DATE_TIME ( #31, #82 ) ;
#175 = CC_DESIGN_DATE_AND_TIME_ASSIGNMENT ( #69, #219, ( #178 ) ) ;
#176 = CALENDAR_DATE ( 2025, 1, 7 ) ;
#177 = EDGE_LOOP ( 'NONE', ( #65 ) ) ;
#178 = SECURITY_CLASSIFICATION ( '', '', #101 ) ;
#179 = CARTESIAN_POINT ( 'NONE',  ( 0.000000000000000000, 0.000000000000000000, 6.500000000000000000 ) ) ;
#180 = ADVANCED_FACE ( 'NONE', ( #247, #71 ), #144, .T. ) ;
#181 = DIRECTION ( 'NONE',  ( 1.000000000000000000, 0.000000000000000000, 0.000000000000000000 ) ) ;
#182 = EDGE_LOOP ( 'NONE', ( #191 ) ) ;
#183 = LOCAL_TIME ( 14, 36, 10.00000000000000000, #198 ) ;
#184 = DIRECTION ( 'NONE',  ( 1.000000000000000000, 0.000000000000000000, 0.000000000000000000 ) ) ;
#185 = ORIENTED_EDGE ( 'NONE', *, *, #46, .F. ) ;
#186 = APPLICATION_CONTEXT ( 'configuration controlled 3d designs of mechanical parts and assemblies' ) ;
#187 = CARTESIAN_POINT ( 'NONE',  ( 42.50000000000000711, 0.000000000000000000, -6.500000000000000000 ) ) ;
#188 = APPLICATION_PROTOCOL_DEFINITION ( 'international standard', 'config_control_design', 1994, #220 ) ;
#189 = DIRECTION ( 'NONE',  ( -1.000000000000000000, 0.000000000000000000, 0.000000000000000000 ) ) ;
#190 = EDGE_CURVE ( 'NONE', #96, #96, #160, .T. ) ;
#191 = ORIENTED_EDGE ( 'NONE', *, *, #190, .F. ) ;
#192 = VERTEX_POINT ( 'NONE', #118 ) ;
#193 = CONICAL_SURFACE ( 'NONE', #14, 41.64942476920268177, 1.308996938995746984 ) ;
#194 = VERTEX_POINT ( 'NONE', #135 ) ;
#195 = ORGANIZATION ( 'UNSPECIFIED', 'UNSPECIFIED', '' ) ;
#196 = PRODUCT_RELATED_PRODUCT_CATEGORY ( 'detail', '', ( #225 ) ) ;
#197 = PERSON_AND_ORGANIZATION_ROLE ( 'creator' ) ;
#198 = COORDINATED_UNIVERSAL_TIME_OFFSET ( 2, 0, .AHEAD. ) ;
#199 = DATE_AND_TIME ( #176, #59 ) ;
#200 = APPROVAL_STATUS ( 'not_yet_approved' ) ;
#201 = APPROVAL_STATUS ( 'not_yet_approved' ) ;
#202 = FACE_OUTER_BOUND ( 'NONE', #151, .T. ) ;
#203 = AXIS2_PLACEMENT_3D ( 'NONE', #74, #150, #227 ) ;
#204 = DIRECTION ( 'NONE',  ( -0.000000000000000000, -0.000000000000000000, 1.000000000000000000 ) ) ;
#205 = ORIENTED_EDGE ( 'NONE', *, *, #190, .T. ) ;
#206 = ADVANCED_FACE ( 'NONE', ( #202, #35 ), #106, .T. ) ;
#207 = ORIENTED_EDGE ( 'NONE', *, *, #5, .T. ) ;
#208 = PRODUCT_DEFINITION_SHAPE ( 'NONE', 'NONE',  #78 ) ;
#209 = ADVANCED_FACE ( 'NONE', ( #127, #249 ), #119, .F. ) ;
#210 = CIRCLE ( 'NONE', #25, 42.50000000000000711 ) ;
#211 = AXIS2_PLACEMENT_3D ( 'NONE', #229, #204, #181 ) ;
#212 = CARTESIAN_POINT ( 'NONE',  ( 0.000000000000000000, 0.000000000000000000, -6.500000000000000000 ) ) ;
#213 = DIRECTION ( 'NONE',  ( -1.000000000000000000, 0.000000000000000000, 0.000000000000000000 ) ) ;
#214 = DIRECTION ( 'NONE',  ( -0.000000000000000000, -0.000000000000000000, 1.000000000000000000 ) ) ;
#215 = CYLINDRICAL_SURFACE ( 'NONE', #154, 14.00000000000000178 ) ;
#216 = ORIENTED_EDGE ( 'NONE', *, *, #91, .T. ) ;
#217 = APPROVAL ( #201, 'UNSPECIFIED' ) ;
#218 = AXIS2_PLACEMENT_3D ( 'NONE', #120, #243, #122 ) ;
#219 = DATE_TIME_ROLE ( 'classification_date' ) ;
#220 = APPLICATION_CONTEXT ( 'configuration controlled 3d designs of mechanical parts and assemblies' ) ;
#221 = ADVANCED_FACE ( 'NONE', ( #238, #66 ), #136, .F. ) ;
#222 = COORDINATED_UNIVERSAL_TIME_OFFSET ( 2, 0, .AHEAD. ) ;
#223 = PRODUCT_DEFINITION_FORMATION_WITH_SPECIFIED_SOURCE ( 'ANY', '', #225, .NOT_KNOWN. ) ;
#224 = APPROVAL_ROLE ( '' ) ;
#225 = PRODUCT ( '250701 STEP 6907', '250701 STEP 6907', '', ( #47 ) ) ;
#226 = ADVANCED_FACE ( 'NONE', ( #169, #63 ), #215, .F. ) ;
#227 = DIRECTION ( 'NONE',  ( 1.000000000000000000, 0.000000000000000000, 0.000000000000000000 ) ) ;
#228 = ORIENTED_EDGE ( 'NONE', *, *, #77, .F. ) ;
#229 = CARTESIAN_POINT ( 'NONE',  ( 0.000000000000000000, 0.000000000000000000, 2.801184896238297029 ) ) ;
#230 = ADVANCED_FACE ( 'NONE', ( #7, #235 ), #193, .T. ) ;
#231 = EDGE_LOOP ( 'NONE', ( #22 ) ) ;
#232 = CARTESIAN_POINT ( 'NONE',  ( 0.000000000000000000, 0.000000000000000000, 6.500000000000000000 ) ) ;
#233 = AXIS2_PLACEMENT_3D ( 'NONE', #56, #110, #184 ) ;
#234 = CC_DESIGN_APPROVAL ( #123, ( #78 ) ) ;
#235 = FACE_BOUND ( 'NONE', #231, .T. ) ;
#236 = CARTESIAN_POINT ( 'NONE',  ( 0.000000000000000000, 0.000000000000000000, 6.500000000000000000 ) ) ;
#237 = VERTEX_POINT ( 'NONE', #113 ) ;
#238 = FACE_OUTER_BOUND ( 'NONE', #182, .T. ) ;
#239 = CARTESIAN_POINT ( 'NONE',  ( 14.00000000000000178, 0.000000000000000000, 6.500000000000000000 ) ) ;
#240 = PERSON_AND_ORGANIZATION_ROLE ( 'design_owner' ) ;
#241 = ADVANCED_FACE ( 'NONE', ( #41, #155 ), #133, .T. ) ;
#242 = PERSON_AND_ORGANIZATION ( #64, #195 ) ;
#243 = DIRECTION ( 'NONE',  ( 0.000000000000000000, 0.000000000000000000, 1.000000000000000000 ) ) ;
#244 = AXIS2_PLACEMENT_3D ( 'NONE', #232, #58, #131 ) ;
#245 = AXIS2_PLACEMENT_3D ( 'NONE', #44, #97, #137 ) ;
#246 = EDGE_CURVE ( 'NONE', #80, #80, #50, .T. ) ;
#247 = FACE_BOUND ( 'NONE', #147, .T. ) ;
#248 = ADVANCED_BREP_SHAPE_REPRESENTATION ( '250701 STEP 6907', ( #90, #218 ), #61 ) ;
#249 = FACE_OUTER_BOUND ( 'NONE', #37, .T. ) ;
ENDSEC;
END-ISO-10303-21;
