ISO-10303-21;
HEADER;
FILE_DESCRIPTION (( 'STEP AP203' ),
    '1' );
FILE_NAME ('250630 STEP 1-400392-01_3839.STEP',
    '2025-06-30T09:58:33',
    ( '' ),
    ( '' ),
    'SwSTEP 2.0',
    'SolidWorks 2024',
    '' );
FILE_SCHEMA (( 'CONFIG_CONTROL_DESIGN' ));
ENDSEC;

DATA;
#1 = EDGE_LOOP ( 'NONE', ( #211 ) ) ;
#2 = LOCAL_TIME ( 12, 58, 33.00000000000000000, #68 ) ;
#3 = DIRECTION ( 'NONE',  ( 0.000000000000000000, 0.000000000000000000, 1.000000000000000000 ) ) ;
#4 = DIRECTION ( 'NONE',  ( 0.000000000000000000, 0.000000000000000000, 1.000000000000000000 ) ) ;
#5 = AXIS2_PLACEMENT_3D ( 'NONE', #179, #26, #145 ) ;
#6 = CC_DESIGN_PERSON_AND_ORGANIZATION_ASSIGNMENT ( #70, #127, ( #103 ) ) ;
#7 = ADVANCED_FACE ( 'NONE', ( #65, #108 ), #18, .F. ) ;
#8 = CC_DESIGN_APPROVAL ( #188, ( #129 ) ) ;
#9 = DIRECTION ( 'NONE',  ( 1.000000000000000000, 0.000000000000000000, 0.000000000000000000 ) ) ;
#10 =( NAMED_UNIT ( * ) PLANE_ANGLE_UNIT ( ) SI_UNIT ( $, .RADIAN. ) );
#11 = FACE_BOUND ( 'NONE', #29, .T. ) ;
#12 = VERTEX_POINT ( 'NONE', #182 ) ;
#13 = AXIS2_PLACEMENT_3D ( 'NONE', #160, #194, #3 ) ;
#14 = ORIENTED_EDGE ( 'NONE', *, *, #132, .T. ) ;
#15 = DIRECTION ( 'NONE',  ( 1.000000000000000000, 0.000000000000000000, 0.000000000000000000 ) ) ;
#16 = EDGE_LOOP ( 'NONE', ( #126 ) ) ;
#17 = PERSON_AND_ORGANIZATION ( #177, #102 ) ;
#18 = CYLINDRICAL_SURFACE ( 'NONE', #244, 18.49999999999999645 ) ;
#19 = APPROVAL_ROLE ( '' ) ;
#20 = EDGE_CURVE ( 'NONE', #222, #222, #93, .T. ) ;
#21 = ORIENTED_EDGE ( 'NONE', *, *, #20, .F. ) ;
#22 = DIRECTION ( 'NONE',  ( -1.000000000000000000, -0.000000000000000000, -0.000000000000000000 ) ) ;
#23 = EDGE_LOOP ( 'NONE', ( #62 ) ) ;
#24 = APPROVAL_ROLE ( '' ) ;
#25 = AXIS2_PLACEMENT_3D ( 'NONE', #45, #22, #106 ) ;
#26 = DIRECTION ( 'NONE',  ( -1.000000000000000000, -0.000000000000000000, -0.000000000000000000 ) ) ;
#27 = AXIS2_PLACEMENT_3D ( 'NONE', #217, #50, #4 ) ;
#28 = ADVANCED_FACE ( 'NONE', ( #190, #156 ), #220, .F. ) ;
#29 = EDGE_LOOP ( 'NONE', ( #230 ) ) ;
#30 = PLANE ( 'NONE',  #90 ) ;
#31 = ORIENTED_EDGE ( 'NONE', *, *, #172, .F. ) ;
#32 = CARTESIAN_POINT ( 'NONE',  ( 8.999999999999998224, 0.000000000000000000, 34.00000000000000000 ) ) ;
#33 =( LENGTH_UNIT ( ) NAMED_UNIT ( * ) SI_UNIT ( .MILLI., .METRE. ) );
#34 = CARTESIAN_POINT ( 'NONE',  ( 0.000000000000000000, 0.000000000000000000, 0.000000000000000000 ) ) ;
#35 = APPLICATION_PROTOCOL_DEFINITION ( 'international standard', 'config_control_design', 1994, #242 ) ;
#36 = AXIS2_PLACEMENT_3D ( 'NONE', #88, #81, #123 ) ;
#37 = DIRECTION ( 'NONE',  ( 0.000000000000000000, 0.000000000000000000, 1.000000000000000000 ) ) ;
#38 = DATE_AND_TIME ( #178, #2 ) ;
#39 = ADVANCED_FACE ( 'NONE', ( #213, #42 ), #243, .F. ) ;
#40 = EDGE_LOOP ( 'NONE', ( #31 ) ) ;
#41 = DATE_TIME_ROLE ( 'classification_date' ) ;
#42 = FACE_OUTER_BOUND ( 'NONE', #116, .T. ) ;
#43 = PRODUCT ( '250630 STEP 1-400392-01_3839', '250630 STEP 1-400392-01_3839', '', ( #118 ) ) ;
#44 =( GEOMETRIC_REPRESENTATION_CONTEXT ( 3 ) GLOBAL_UNCERTAINTY_ASSIGNED_CONTEXT ( ( #246 ) ) GLOBAL_UNIT_ASSIGNED_CONTEXT ( ( #33, #10, #148 ) ) REPRESENTATION_CONTEXT ( 'NONE', 'WORKASPACE' ) );
#45 = CARTESIAN_POINT ( 'NONE',  ( 0.000000000000000000, 0.000000000000000000, 0.000000000000000000 ) ) ;
#46 = DESIGN_CONTEXT ( 'detailed design', #242, 'design' ) ;
#47 = APPROVAL_DATE_TIME ( #157, #181 ) ;
#48 = DIRECTION ( 'NONE',  ( 0.000000000000000000, 0.000000000000000000, 1.000000000000000000 ) ) ;
#49 = APPROVAL_STATUS ( 'not_yet_approved' ) ;
#50 = DIRECTION ( 'NONE',  ( -1.000000000000000000, -0.000000000000000000, -0.000000000000000000 ) ) ;
#51 = LOCAL_TIME ( 12, 58, 33.00000000000000000, #84 ) ;
#52 = EDGE_CURVE ( 'NONE', #95, #95, #183, .T. ) ;
#53 = LOCAL_TIME ( 12, 58, 33.00000000000000000, #82 ) ;
#54 = CARTESIAN_POINT ( 'NONE',  ( 12.00000000000000000, 0.000000000000000000, 40.00000000000000000 ) ) ;
#55 = EDGE_LOOP ( 'NONE', ( #210 ) ) ;
#56 = PLANE ( 'NONE',  #110 ) ;
#57 = APPLICATION_CONTEXT ( 'configuration controlled 3d designs of mechanical parts and assemblies' ) ;
#58 = APPROVAL ( #231, 'UNSPECIFIED' ) ;
#59 = DIRECTION ( 'NONE',  ( 0.000000000000000000, 0.000000000000000000, 1.000000000000000000 ) ) ;
#60 = VERTEX_POINT ( 'NONE', #54 ) ;
#61 = DIRECTION ( 'NONE',  ( -1.000000000000000000, 0.000000000000000000, -0.000000000000000000 ) ) ;
#62 = ORIENTED_EDGE ( 'NONE', *, *, #112, .F. ) ;
#63 = CIRCLE ( 'NONE', #199, 18.49999999999999645 ) ;
#64 = FACE_OUTER_BOUND ( 'NONE', #40, .T. ) ;
#65 = FACE_OUTER_BOUND ( 'NONE', #141, .T. ) ;
#66 = PERSON_AND_ORGANIZATION ( #177, #102 ) ;
#67 = ORIENTED_EDGE ( 'NONE', *, *, #203, .T. ) ;
#68 = COORDINATED_UNIVERSAL_TIME_OFFSET ( 2, 0, .AHEAD. ) ;
#69 = DIRECTION ( 'NONE',  ( 0.000000000000000000, 0.000000000000000000, 1.000000000000000000 ) ) ;
#70 = PERSON_AND_ORGANIZATION ( #177, #102 ) ;
#71 = CARTESIAN_POINT ( 'NONE',  ( 8.999999999999998224, 0.000000000000000000, 0.000000000000000000 ) ) ;
#72 = AXIS2_PLACEMENT_3D ( 'NONE', #71, #128, #163 ) ;
#73 = EDGE_LOOP ( 'NONE', ( #121 ) ) ;
#74 = PLANE ( 'NONE',  #119 ) ;
#75 = CC_DESIGN_PERSON_AND_ORGANIZATION_ASSIGNMENT ( #17, #159, ( #129 ) ) ;
#76 = DIRECTION ( 'NONE',  ( -0.000000000000000000, 0.000000000000000000, 1.000000000000000000 ) ) ;
#77 = CIRCLE ( 'NONE', #27, 18.50000000000000000 ) ;
#78 = DIRECTION ( 'NONE',  ( 0.000000000000000000, 0.000000000000000000, 1.000000000000000000 ) ) ;
#79 = PERSON_AND_ORGANIZATION_ROLE ( 'design_owner' ) ;
#80 = APPROVAL_ROLE ( '' ) ;
#81 = DIRECTION ( 'NONE',  ( 1.000000000000000000, 0.000000000000000000, 0.000000000000000000 ) ) ;
#82 = COORDINATED_UNIVERSAL_TIME_OFFSET ( 2, 0, .AHEAD. ) ;
#83 = ORIENTED_EDGE ( 'NONE', *, *, #112, .T. ) ;
#84 = COORDINATED_UNIVERSAL_TIME_OFFSET ( 2, 0, .AHEAD. ) ;
#85 = PRODUCT_RELATED_PRODUCT_CATEGORY ( 'detail', '', ( #43 ) ) ;
#86 = DIRECTION ( 'NONE',  ( -1.000000000000000000, -0.000000000000000000, -0.000000000000000000 ) ) ;
#87 = PERSON_AND_ORGANIZATION ( #177, #102 ) ;
#88 = CARTESIAN_POINT ( 'NONE',  ( 8.999999999999998224, 34.00000000000000000, 0.000000000000000000 ) ) ;
#89 = APPROVAL_DATE_TIME ( #161, #58 ) ;
#90 = AXIS2_PLACEMENT_3D ( 'NONE', #204, #237, #96 ) ;
#91 = ORIENTED_EDGE ( 'NONE', *, *, #172, .T. ) ;
#92 = ADVANCED_FACE ( 'NONE', ( #64, #173 ), #138, .T. ) ;
#93 = CIRCLE ( 'NONE', #164, 34.00000000000000000 ) ;
#94 = AXIS2_PLACEMENT_3D ( 'NONE', #176, #232, #69 ) ;
#95 = VERTEX_POINT ( 'NONE', #221 ) ;
#96 = DIRECTION ( 'NONE',  ( -0.000000000000000000, 0.000000000000000000, 1.000000000000000000 ) ) ;
#97 = ADVANCED_FACE ( 'NONE', ( #192, #104 ), #158, .T. ) ;
#98 = AXIS2_PLACEMENT_3D ( 'NONE', #198, #111, #235 ) ;
#99 = EDGE_LOOP ( 'NONE', ( #83 ) ) ;
#100 = PERSON_AND_ORGANIZATION_ROLE ( 'design_supplier' ) ;
#101 = EDGE_LOOP ( 'NONE', ( #21 ) ) ;
#102 = ORGANIZATION ( 'UNSPECIFIED', 'UNSPECIFIED', '' ) ;
#103 = PRODUCT_DEFINITION ( 'UNKNOWN', '', #137, #46 ) ;
#104 = FACE_OUTER_BOUND ( 'NONE', #196, .T. ) ;
#105 = CALENDAR_DATE ( 2025, 30, 6 ) ;
#106 = DIRECTION ( 'NONE',  ( 0.000000000000000000, 0.000000000000000000, 1.000000000000000000 ) ) ;
#107 = CALENDAR_DATE ( 2025, 30, 6 ) ;
#108 = FACE_OUTER_BOUND ( 'NONE', #184, .T. ) ;
#109 = SHAPE_DEFINITION_REPRESENTATION ( #200, #146 ) ;
#110 = AXIS2_PLACEMENT_3D ( 'NONE', #185, #61, #76 ) ;
#111 = DIRECTION ( 'NONE',  ( -1.000000000000000000, -0.000000000000000000, -0.000000000000000000 ) ) ;
#112 = EDGE_CURVE ( 'NONE', #60, #60, #154, .T. ) ;
#113 = CC_DESIGN_APPROVAL ( #181, ( #103 ) ) ;
#114 = MANIFOLD_SOLID_BREP ( 'Revolve1', #201 ) ;
#115 = FACE_BOUND ( 'NONE', #1, .T. ) ;
#116 = EDGE_LOOP ( 'NONE', ( #91 ) ) ;
#117 = EDGE_CURVE ( 'NONE', #202, #202, #77, .T. ) ;
#118 = MECHANICAL_CONTEXT ( 'NONE', #57, 'mechanical' ) ;
#119 = AXIS2_PLACEMENT_3D ( 'NONE', #167, #9, #135 ) ;
#120 = PERSON_AND_ORGANIZATION ( #177, #102 ) ;
#121 = ORIENTED_EDGE ( 'NONE', *, *, #52, .F. ) ;
#122 = PERSON_AND_ORGANIZATION ( #177, #102 ) ;
#123 = DIRECTION ( 'NONE',  ( 0.000000000000000000, 0.000000000000000000, -1.000000000000000000 ) ) ;
#124 = DIRECTION ( 'NONE',  ( 0.000000000000000000, 0.000000000000000000, 1.000000000000000000 ) ) ;
#125 = ORIENTED_EDGE ( 'NONE', *, *, #20, .T. ) ;
#126 = ORIENTED_EDGE ( 'NONE', *, *, #203, .F. ) ;
#127 = PERSON_AND_ORGANIZATION_ROLE ( 'creator' ) ;
#128 = DIRECTION ( 'NONE',  ( -1.000000000000000000, -0.000000000000000000, -0.000000000000000000 ) ) ;
#129 = SECURITY_CLASSIFICATION ( '', '', #216 ) ;
#130 = APPROVAL_PERSON_ORGANIZATION ( #122, #188, #24 ) ;
#131 = PERSON_AND_ORGANIZATION ( #177, #102 ) ;
#132 = EDGE_CURVE ( 'NONE', #205, #205, #180, .T. ) ;
#133 = FACE_OUTER_BOUND ( 'NONE', #23, .T. ) ;
#134 = CARTESIAN_POINT ( 'NONE',  ( 0.000000000000000000, 0.000000000000000000, 40.00000000000000000 ) ) ;
#135 = DIRECTION ( 'NONE',  ( 0.000000000000000000, 0.000000000000000000, -1.000000000000000000 ) ) ;
#136 = EDGE_LOOP ( 'NONE', ( #67 ) ) ;
#137 = PRODUCT_DEFINITION_FORMATION_WITH_SPECIFIED_SOURCE ( 'ANY', '', #43, .NOT_KNOWN. ) ;
#138 = CYLINDRICAL_SURFACE ( 'NONE', #207, 39.99999999999999289 ) ;
#139 = DIRECTION ( 'NONE',  ( -1.000000000000000000, -0.000000000000000000, -0.000000000000000000 ) ) ;
#140 = CALENDAR_DATE ( 2025, 30, 6 ) ;
#141 = EDGE_LOOP ( 'NONE', ( #142 ) ) ;
#142 = ORIENTED_EDGE ( 'NONE', *, *, #117, .F. ) ;
#143 = DATE_TIME_ROLE ( 'creation_date' ) ;
#144 = CC_DESIGN_PERSON_AND_ORGANIZATION_ASSIGNMENT ( #66, #229, ( #137 ) ) ;
#145 = DIRECTION ( 'NONE',  ( 0.000000000000000000, 0.000000000000000000, 1.000000000000000000 ) ) ;
#146 = ADVANCED_BREP_SHAPE_REPRESENTATION ( '250630 STEP 1-400392-01_3839', ( #114, #162 ), #44 ) ;
#147 = APPROVAL_PERSON_ORGANIZATION ( #120, #181, #19 ) ;
#148 =( NAMED_UNIT ( * ) SI_UNIT ( $, .STERADIAN. ) SOLID_ANGLE_UNIT ( ) );
#149 = CARTESIAN_POINT ( 'NONE',  ( 9.000000000000000000, 0.000000000000000000, 39.99999999999999289 ) ) ;
#150 = CC_DESIGN_PERSON_AND_ORGANIZATION_ASSIGNMENT ( #87, #100, ( #137 ) ) ;
#151 = FACE_OUTER_BOUND ( 'NONE', #73, .T. ) ;
#152 = CARTESIAN_POINT ( 'NONE',  ( 3.000000000000000444, 0.000000000000000000, 34.00000000000000000 ) ) ;
#153 = CARTESIAN_POINT ( 'NONE',  ( 0.000000000000000000, 0.000000000000000000, 0.000000000000000000 ) ) ;
#154 = CIRCLE ( 'NONE', #94, 40.00000000000000000 ) ;
#155 = APPROVAL_DATE_TIME ( #38, #188 ) ;
#156 = FACE_OUTER_BOUND ( 'NONE', #191, .T. ) ;
#157 = DATE_AND_TIME ( #209, #214 ) ;
#158 = CYLINDRICAL_SURFACE ( 'NONE', #25, 40.00000000000000000 ) ;
#159 = PERSON_AND_ORGANIZATION_ROLE ( 'classification_officer' ) ;
#160 = CARTESIAN_POINT ( 'NONE',  ( 3.000000000000000000, 0.000000000000000000, 0.000000000000000000 ) ) ;
#161 = DATE_AND_TIME ( #105, #53 ) ;
#162 = AXIS2_PLACEMENT_3D ( 'NONE', #34, #78, #15 ) ;
#163 = DIRECTION ( 'NONE',  ( 0.000000000000000000, 0.000000000000000000, 1.000000000000000000 ) ) ;
#164 = AXIS2_PLACEMENT_3D ( 'NONE', #215, #228, #37 ) ;
#165 = DIRECTION ( 'NONE',  ( -1.000000000000000000, -0.000000000000000000, -0.000000000000000000 ) ) ;
#166 = CARTESIAN_POINT ( 'NONE',  ( 12.00000000000000000, 0.000000000000000000, 18.50000000000000000 ) ) ;
#167 = CARTESIAN_POINT ( 'NONE',  ( 0.000000000000000000, 18.49999999999999645, 0.000000000000000000 ) ) ;
#168 = CIRCLE ( 'NONE', #98, 40.00000000000000000 ) ;
#169 = FACE_BOUND ( 'NONE', #175, .T. ) ;
#170 = CARTESIAN_POINT ( 'NONE',  ( 5.999999999999999112, 0.000000000000000000, 0.000000000000000000 ) ) ;
#171 = APPROVAL_STATUS ( 'not_yet_approved' ) ;
#172 = EDGE_CURVE ( 'NONE', #206, #206, #187, .T. ) ;
#173 = FACE_OUTER_BOUND ( 'NONE', #99, .T. ) ;
#174 = AXIS2_PLACEMENT_3D ( 'NONE', #170, #226, #248 ) ;
#175 = EDGE_LOOP ( 'NONE', ( #125 ) ) ;
#176 = CARTESIAN_POINT ( 'NONE',  ( 12.00000000000000000, 0.000000000000000000, 0.000000000000000000 ) ) ;
#177 = PERSON ( 'UNSPECIFIED', 'UNSPECIFIED', 'UNSPECIFIED', ('UNSPECIFIED'), ('UNSPECIFIED'), ('UNSPECIFIED') ) ;
#178 = CALENDAR_DATE ( 2025, 30, 6 ) ;
#179 = CARTESIAN_POINT ( 'NONE',  ( 9.000000000000000000, 0.000000000000000000, 0.000000000000000000 ) ) ;
#180 = CIRCLE ( 'NONE', #72, 34.00000000000000000 ) ;
#181 = APPROVAL ( #171, 'UNSPECIFIED' ) ;
#182 = CARTESIAN_POINT ( 'NONE',  ( 0.000000000000000000, 0.000000000000000000, 18.49999999999999645 ) ) ;
#183 = CIRCLE ( 'NONE', #13, 40.00000000000000000 ) ;
#184 = EDGE_LOOP ( 'NONE', ( #208 ) ) ;
#185 = CARTESIAN_POINT ( 'NONE',  ( 12.00000000000000000, 40.00000000000000000, 0.000000000000000000 ) ) ;
#186 = APPLICATION_PROTOCOL_DEFINITION ( 'international standard', 'config_control_design', 1994, #57 ) ;
#187 = CIRCLE ( 'NONE', #5, 39.99999999999999289 ) ;
#188 = APPROVAL ( #49, 'UNSPECIFIED' ) ;
#189 = CC_DESIGN_SECURITY_CLASSIFICATION ( #129, ( #137 ) ) ;
#190 = FACE_OUTER_BOUND ( 'NONE', #101, .T. ) ;
#191 = EDGE_LOOP ( 'NONE', ( #14 ) ) ;
#192 = FACE_OUTER_BOUND ( 'NONE', #16, .T. ) ;
#193 = CC_DESIGN_DATE_AND_TIME_ASSIGNMENT ( #212, #143, ( #103 ) ) ;
#194 = DIRECTION ( 'NONE',  ( -1.000000000000000000, -0.000000000000000000, -0.000000000000000000 ) ) ;
#195 = DATE_AND_TIME ( #140, #233 ) ;
#196 = EDGE_LOOP ( 'NONE', ( #224 ) ) ;
#197 = COORDINATED_UNIVERSAL_TIME_OFFSET ( 2, 0, .AHEAD. ) ;
#198 = CARTESIAN_POINT ( 'NONE',  ( 0.000000000000000000, 0.000000000000000000, 0.000000000000000000 ) ) ;
#199 = AXIS2_PLACEMENT_3D ( 'NONE', #239, #165, #59 ) ;
#200 = PRODUCT_DEFINITION_SHAPE ( 'NONE', 'NONE',  #103 ) ;
#201 = CLOSED_SHELL ( 'NONE', ( #7, #247, #92, #39, #28, #218, #97, #236 ) ) ;
#202 = VERTEX_POINT ( 'NONE', #166 ) ;
#203 = EDGE_CURVE ( 'NONE', #219, #219, #168, .T. ) ;
#204 = CARTESIAN_POINT ( 'NONE',  ( 3.000000000000000000, 40.00000000000000000, 0.000000000000000000 ) ) ;
#205 = VERTEX_POINT ( 'NONE', #32 ) ;
#206 = VERTEX_POINT ( 'NONE', #149 ) ;
#207 = AXIS2_PLACEMENT_3D ( 'NONE', #245, #139, #124 ) ;
#208 = ORIENTED_EDGE ( 'NONE', *, *, #223, .T. ) ;
#209 = CALENDAR_DATE ( 2025, 30, 6 ) ;
#210 = ORIENTED_EDGE ( 'NONE', *, *, #132, .F. ) ;
#211 = ORIENTED_EDGE ( 'NONE', *, *, #223, .F. ) ;
#212 = DATE_AND_TIME ( #107, #51 ) ;
#213 = FACE_BOUND ( 'NONE', #55, .T. ) ;
#214 = LOCAL_TIME ( 12, 58, 33.00000000000000000, #234 ) ;
#215 = CARTESIAN_POINT ( 'NONE',  ( 3.000000000000000444, 0.000000000000000000, 0.000000000000000000 ) ) ;
#216 = SECURITY_CLASSIFICATION_LEVEL ( 'unclassified' ) ;
#217 = CARTESIAN_POINT ( 'NONE',  ( 12.00000000000000000, 0.000000000000000000, 0.000000000000000000 ) ) ;
#218 = ADVANCED_FACE ( 'NONE', ( #151, #169 ), #30, .F. ) ;
#219 = VERTEX_POINT ( 'NONE', #134 ) ;
#220 = TOROIDAL_SURFACE ( 'NONE', #174, 34.00000000000000000, 2.999999999999999112 ) ;
#221 = CARTESIAN_POINT ( 'NONE',  ( 3.000000000000000000, 0.000000000000000000, 40.00000000000000000 ) ) ;
#222 = VERTEX_POINT ( 'NONE', #152 ) ;
#223 = EDGE_CURVE ( 'NONE', #12, #12, #63, .T. ) ;
#224 = ORIENTED_EDGE ( 'NONE', *, *, #52, .T. ) ;
#225 = CC_DESIGN_APPROVAL ( #58, ( #137 ) ) ;
#226 = DIRECTION ( 'NONE',  ( -1.000000000000000000, -0.000000000000000000, -0.000000000000000000 ) ) ;
#227 = CC_DESIGN_DATE_AND_TIME_ASSIGNMENT ( #195, #41, ( #129 ) ) ;
#228 = DIRECTION ( 'NONE',  ( -1.000000000000000000, -0.000000000000000000, -0.000000000000000000 ) ) ;
#229 = PERSON_AND_ORGANIZATION_ROLE ( 'creator' ) ;
#230 = ORIENTED_EDGE ( 'NONE', *, *, #117, .T. ) ;
#231 = APPROVAL_STATUS ( 'not_yet_approved' ) ;
#232 = DIRECTION ( 'NONE',  ( -1.000000000000000000, -0.000000000000000000, -0.000000000000000000 ) ) ;
#233 = LOCAL_TIME ( 12, 58, 33.00000000000000000, #197 ) ;
#234 = COORDINATED_UNIVERSAL_TIME_OFFSET ( 2, 0, .AHEAD. ) ;
#235 = DIRECTION ( 'NONE',  ( 0.000000000000000000, 0.000000000000000000, 1.000000000000000000 ) ) ;
#236 = ADVANCED_FACE ( 'NONE', ( #115, #238 ), #74, .F. ) ;
#237 = DIRECTION ( 'NONE',  ( -1.000000000000000000, 0.000000000000000000, -0.000000000000000000 ) ) ;
#238 = FACE_OUTER_BOUND ( 'NONE', #136, .T. ) ;
#239 = CARTESIAN_POINT ( 'NONE',  ( 0.000000000000000000, 0.000000000000000000, 0.000000000000000000 ) ) ;
#240 = APPROVAL_PERSON_ORGANIZATION ( #249, #58, #80 ) ;
#241 = CC_DESIGN_PERSON_AND_ORGANIZATION_ASSIGNMENT ( #131, #79, ( #43 ) ) ;
#242 = APPLICATION_CONTEXT ( 'configuration controlled 3d designs of mechanical parts and assemblies' ) ;
#243 = PLANE ( 'NONE',  #36 ) ;
#244 = AXIS2_PLACEMENT_3D ( 'NONE', #153, #86, #48 ) ;
#245 = CARTESIAN_POINT ( 'NONE',  ( 0.000000000000000000, 0.000000000000000000, 0.000000000000000000 ) ) ;
#246 = UNCERTAINTY_MEASURE_WITH_UNIT (LENGTH_MEASURE( 1.000000000000000082E-05 ), #33, 'distance_accuracy_value', 'NONE');
#247 = ADVANCED_FACE ( 'NONE', ( #133, #11 ), #56, .F. ) ;
#248 = DIRECTION ( 'NONE',  ( 0.000000000000000000, 0.000000000000000000, 1.000000000000000000 ) ) ;
#249 = PERSON_AND_ORGANIZATION ( #177, #102 ) ;
ENDSEC;
END-ISO-10303-21;
