ISO-10303-21;
HEADER;
FILE_DESCRIPTION (( 'STEP AP203' ),
    '1' );
FILE_NAME ('250630 STEP 1-400392-01_2151.STEP',
    '2025-06-30T09:45:06',
    ( '' ),
    ( '' ),
    'SwSTEP 2.0',
    'SolidWorks 2024',
    '' );
FILE_SCHEMA (( 'CONFIG_CONTROL_DESIGN' ));
ENDSEC;

DATA;
#1 = CARTESIAN_POINT ( 'NONE',  ( 0.000000000000000000, 6.999999999999999112, 11.29999999999999005 ) ) ;
#2 = AXIS2_PLACEMENT_3D ( 'NONE', #336, #195, #244 ) ;
#3 =( LENGTH_UNIT ( ) NAMED_UNIT ( * ) SI_UNIT ( .MILLI., .METRE. ) );
#4 = CONICAL_SURFACE ( 'NONE', #143, 20.00000000000000000, 1.134464013796320669 ) ;
#5 = CC_DESIGN_PERSON_AND_ORGANIZATION_ASSIGNMENT ( #147, #92, ( #179 ) ) ;
#6 = PRODUCT_DEFINITION_FORMATION_WITH_SPECIFIED_SOURCE ( 'ANY', '', #369, .NOT_KNOWN. ) ;
#7 = EDGE_CURVE ( 'NONE', #196, #196, #93, .T. ) ;
#8 = AXIS2_PLACEMENT_3D ( 'NONE', #289, #128, #238 ) ;
#9 = PERSON_AND_ORGANIZATION ( #315, #368 ) ;
#10 = AXIS2_PLACEMENT_3D ( 'NONE', #341, #302, #113 ) ;
#11 = COORDINATED_UNIVERSAL_TIME_OFFSET ( 2, 0, .AHEAD. ) ;
#12 = FACE_OUTER_BOUND ( 'NONE', #242, .T. ) ;
#13 = FACE_BOUND ( 'NONE', #54, .T. ) ;
#14 = EDGE_LOOP ( 'NONE', ( #360 ) ) ;
#15 = FACE_OUTER_BOUND ( 'NONE', #84, .T. ) ;
#16 = EDGE_LOOP ( 'NONE', ( #43 ) ) ;
#17 = EDGE_LOOP ( 'NONE', ( #197 ) ) ;
#18 = CC_DESIGN_DATE_AND_TIME_ASSIGNMENT ( #352, #204, ( #179 ) ) ;
#19 = DIRECTION ( 'NONE',  ( 0.000000000000000000, -1.000000000000000000, -0.000000000000000000 ) ) ;
#20 = CARTESIAN_POINT ( 'NONE',  ( 0.000000000000000000, 6.999999999999999112, 0.000000000000000000 ) ) ;
#21 = CARTESIAN_POINT ( 'NONE',  ( 0.000000000000000000, 6.699999999999997513, 20.00000000000000355 ) ) ;
#22 = CARTESIAN_POINT ( 'NONE',  ( 0.000000000000000000, 0.000000000000000000, 0.000000000000000000 ) ) ;
#23 = ORIENTED_EDGE ( 'NONE', *, *, #285, .F. ) ;
#24 = FACE_BOUND ( 'NONE', #112, .T. ) ;
#25 = CARTESIAN_POINT ( 'NONE',  ( 0.000000000000000000, 0.6936482891377862003, 0.000000000000000000 ) ) ;
#26 = ORIENTED_EDGE ( 'NONE', *, *, #187, .F. ) ;
#27 = VERTEX_POINT ( 'NONE', #199 ) ;
#28 = VERTEX_POINT ( 'NONE', #109 ) ;
#29 = CC_DESIGN_APPROVAL ( #339, ( #179 ) ) ;
#30 = CIRCLE ( 'NONE', #292, 11.00000000000000355 ) ;
#31 = PRODUCT_DEFINITION_SHAPE ( 'NONE', 'NONE',  #64 ) ;
#32 = AXIS2_PLACEMENT_3D ( 'NONE', #101, #189, #357 ) ;
#33 = SECURITY_CLASSIFICATION_LEVEL ( 'unclassified' ) ;
#34 = AXIS2_PLACEMENT_3D ( 'NONE', #97, #207, #324 ) ;
#35 = LOCAL_TIME ( 12, 45, 6.000000000000000000, #262 ) ;
#36 = DIRECTION ( 'NONE',  ( 1.000000000000000000, 0.000000000000000000, 0.000000000000000000 ) ) ;
#37 = DIRECTION ( 'NONE',  ( 0.000000000000000000, 0.000000000000000000, 1.000000000000000000 ) ) ;
#38 = DIRECTION ( 'NONE',  ( 0.000000000000000000, 0.000000000000000000, 1.000000000000000000 ) ) ;
#39 = DIRECTION ( 'NONE',  ( 0.000000000000000000, 0.000000000000000000, -1.000000000000000000 ) ) ;
#40 = EDGE_LOOP ( 'NONE', ( #108 ) ) ;
#41 = AXIS2_PLACEMENT_3D ( 'NONE', #291, #241, #39 ) ;
#42 = CYLINDRICAL_SURFACE ( 'NONE', #73, 11.00000000000000355 ) ;
#43 = ORIENTED_EDGE ( 'NONE', *, *, #349, .F. ) ;
#44 = DIRECTION ( 'NONE',  ( 0.000000000000000000, 0.000000000000000000, -1.000000000000000000 ) ) ;
#45 = DIRECTION ( 'NONE',  ( 0.000000000000000000, 0.000000000000000000, -1.000000000000000000 ) ) ;
#46 = CARTESIAN_POINT ( 'NONE',  ( 0.000000000000000000, 0.000000000000000000, -19.70000000000000284 ) ) ;
#47 = CYLINDRICAL_SURFACE ( 'NONE', #91, 16.00000000000000000 ) ;
#48 = ORIENTED_EDGE ( 'NONE', *, *, #234, .T. ) ;
#49 = EDGE_LOOP ( 'NONE', ( #306 ) ) ;
#50 = DIRECTION ( 'NONE',  ( -0.000000000000000000, -1.000000000000000000, -0.000000000000000000 ) ) ;
#51 = CIRCLE ( 'NONE', #10, 16.00000000000000000 ) ;
#52 = ORIENTED_EDGE ( 'NONE', *, *, #70, .F. ) ;
#53 = CARTESIAN_POINT ( 'NONE',  ( 0.000000000000000000, 4.249999999999999112, -16.00000000000000000 ) ) ;
#54 = EDGE_LOOP ( 'NONE', ( #243 ) ) ;
#55 = CARTESIAN_POINT ( 'NONE',  ( 0.000000000000000000, 0.9655406252487807039, 0.000000000000000000 ) ) ;
#56 = EDGE_CURVE ( 'NONE', #102, #102, #203, .T. ) ;
#57 = TOROIDAL_SURFACE ( 'NONE', #201, 19.70000000000000284, 0.2999999999999999889 ) ;
#58 = LOCAL_TIME ( 12, 45, 6.000000000000000000, #256 ) ;
#59 = AXIS2_PLACEMENT_3D ( 'NONE', #20, #132, #81 ) ;
#60 = ADVANCED_FACE ( 'NONE', ( #127, #245 ), #274, .T. ) ;
#61 = ADVANCED_BREP_SHAPE_REPRESENTATION ( '250630 STEP 1-400392-01_2151', ( #144, #66 ), #322 ) ;
#62 = DATE_TIME_ROLE ( 'creation_date' ) ;
#63 = APPROVAL_ROLE ( '' ) ;
#64 = PRODUCT_DEFINITION ( 'UNKNOWN', '', #6, #146 ) ;
#65 = APPLICATION_PROTOCOL_DEFINITION ( 'international standard', 'config_control_design', 1994, #171 ) ;
#66 = AXIS2_PLACEMENT_3D ( 'NONE', #180, #38, #36 ) ;
#67 = DIRECTION ( 'NONE',  ( -0.000000000000000000, 1.000000000000000000, -0.000000000000000000 ) ) ;
#68 = PERSON_AND_ORGANIZATION_ROLE ( 'creator' ) ;
#69 = FACE_BOUND ( 'NONE', #210, .T. ) ;
#70 = EDGE_CURVE ( 'NONE', #278, #278, #115, .T. ) ;
#71 = DIRECTION ( 'NONE',  ( -0.000000000000000000, 1.000000000000000000, -0.000000000000000000 ) ) ;
#72 = EDGE_LOOP ( 'NONE', ( #223 ) ) ;
#73 = AXIS2_PLACEMENT_3D ( 'NONE', #355, #157, #266 ) ;
#74 = FACE_OUTER_BOUND ( 'NONE', #72, .T. ) ;
#75 = DIRECTION ( 'NONE',  ( -0.000000000000000000, -1.000000000000000000, -0.000000000000000000 ) ) ;
#76 = DIRECTION ( 'NONE',  ( 0.000000000000000000, 1.000000000000000000, 0.000000000000000000 ) ) ;
#77 = FACE_OUTER_BOUND ( 'NONE', #16, .T. ) ;
#78 = ORIENTED_EDGE ( 'NONE', *, *, #70, .T. ) ;
#79 = ORIENTED_EDGE ( 'NONE', *, *, #164, .T. ) ;
#80 = DIRECTION ( 'NONE',  ( 0.000000000000000000, 0.000000000000000000, -1.000000000000000000 ) ) ;
#81 = DIRECTION ( 'NONE',  ( 0.000000000000000000, 0.000000000000000000, 1.000000000000000000 ) ) ;
#82 = DIRECTION ( 'NONE',  ( 0.000000000000000000, 0.000000000000000000, 1.000000000000000000 ) ) ;
#83 = DIRECTION ( 'NONE',  ( 0.000000000000000000, 0.000000000000000000, 1.000000000000000000 ) ) ;
#84 = EDGE_LOOP ( 'NONE', ( #52 ) ) ;
#85 = CONICAL_SURFACE ( 'NONE', #313, 11.00000000000000355, 0.7853981633974453924 ) ;
#86 = VERTEX_POINT ( 'NONE', #53 ) ;
#87 = CIRCLE ( 'NONE', #175, 19.70000000000000284 ) ;
#88 =( NAMED_UNIT ( * ) PLANE_ANGLE_UNIT ( ) SI_UNIT ( $, .RADIAN. ) );
#89 = ADVANCED_FACE ( 'NONE', ( #139, #240 ), #85, .F. ) ;
#90 = AXIS2_PLACEMENT_3D ( 'NONE', #225, #331, #82 ) ;
#91 = AXIS2_PLACEMENT_3D ( 'NONE', #247, #181, #162 ) ;
#92 = PERSON_AND_ORGANIZATION_ROLE ( 'classification_officer' ) ;
#93 = CIRCLE ( 'NONE', #32, 20.00000000000000355 ) ;
#94 = COORDINATED_UNIVERSAL_TIME_OFFSET ( 2, 0, .AHEAD. ) ;
#95 = CARTESIAN_POINT ( 'NONE',  ( 0.000000000000000000, 2.749999999999999556, 0.000000000000000000 ) ) ;
#96 = PERSON_AND_ORGANIZATION_ROLE ( 'design_supplier' ) ;
#97 = CARTESIAN_POINT ( 'NONE',  ( 0.000000000000000000, 0.6936482891377862003, 0.000000000000000000 ) ) ;
#98 = COORDINATED_UNIVERSAL_TIME_OFFSET ( 2, 0, .AHEAD. ) ;
#99 = CARTESIAN_POINT ( 'NONE',  ( 0.000000000000000000, 6.999999999999999112, 0.000000000000000000 ) ) ;
#100 = EDGE_LOOP ( 'NONE', ( #168 ) ) ;
#101 = CARTESIAN_POINT ( 'NONE',  ( 0.000000000000000000, 6.306351710862216464, 0.000000000000000000 ) ) ;
#102 = VERTEX_POINT ( 'NONE', #1 ) ;
#103 = FACE_OUTER_BOUND ( 'NONE', #14, .T. ) ;
#104 = ORIENTED_EDGE ( 'NONE', *, *, #176, .T. ) ;
#105 = ORIENTED_EDGE ( 'NONE', *, *, #285, .T. ) ;
#106 = CONICAL_SURFACE ( 'NONE', #329, 19.70000000000000284, 0.7853981633974541632 ) ;
#107 = CARTESIAN_POINT ( 'NONE',  ( 0.000000000000000000, 6.034459374751217631, 0.000000000000000000 ) ) ;
#108 = ORIENTED_EDGE ( 'NONE', *, *, #7, .F. ) ;
#109 = CARTESIAN_POINT ( 'NONE',  ( 0.000000000000000000, 6.700000000000009948, 11.00000000000000355 ) ) ;
#110 = FACE_OUTER_BOUND ( 'NONE', #239, .T. ) ;
#111 = CONICAL_SURFACE ( 'NONE', #312, 16.00000000000000000, 1.134464013796320225 ) ;
#112 = EDGE_LOOP ( 'NONE', ( #48 ) ) ;
#113 = DIRECTION ( 'NONE',  ( 0.000000000000000000, 0.000000000000000000, -1.000000000000000000 ) ) ;
#114 = EDGE_CURVE ( 'NONE', #308, #308, #342, .T. ) ;
#115 = CIRCLE ( 'NONE', #226, 20.00000000000000355 ) ;
#116 = CARTESIAN_POINT ( 'NONE',  ( 0.000000000000000000, 0.6936482891377862003, 20.00000000000000355 ) ) ;
#117 = CC_DESIGN_PERSON_AND_ORGANIZATION_ASSIGNMENT ( #208, #177, ( #6 ) ) ;
#118 = AXIS2_PLACEMENT_3D ( 'NONE', #343, #309, #246 ) ;
#119 = EDGE_CURVE ( 'NONE', #86, #86, #51, .T. ) ;
#120 = AXIS2_PLACEMENT_3D ( 'NONE', #271, #326, #134 ) ;
#121 = PERSON_AND_ORGANIZATION ( #315, #368 ) ;
#122 = SHAPE_DEFINITION_REPRESENTATION ( #31, #61 ) ;
#123 = DATE_AND_TIME ( #258, #231 ) ;
#124 = DIRECTION ( 'NONE',  ( -0.000000000000000000, -1.000000000000000000, -0.000000000000000000 ) ) ;
#125 = DATE_AND_TIME ( #316, #35 ) ;
#126 = FACE_OUTER_BOUND ( 'NONE', #300, .T. ) ;
#127 = FACE_OUTER_BOUND ( 'NONE', #276, .T. ) ;
#128 = DIRECTION ( 'NONE',  ( 0.000000000000000000, 1.000000000000000000, 0.000000000000000000 ) ) ;
#129 = EDGE_LOOP ( 'NONE', ( #130 ) ) ;
#130 = ORIENTED_EDGE ( 'NONE', *, *, #164, .F. ) ;
#131 = DIRECTION ( 'NONE',  ( 0.000000000000000000, 0.000000000000000000, -1.000000000000000000 ) ) ;
#132 = DIRECTION ( 'NONE',  ( -0.000000000000000000, -1.000000000000000000, -0.000000000000000000 ) ) ;
#133 = FACE_OUTER_BOUND ( 'NONE', #100, .T. ) ;
#134 = DIRECTION ( 'NONE',  ( 0.000000000000000000, 0.000000000000000000, -1.000000000000000000 ) ) ;
#135 = EDGE_LOOP ( 'NONE', ( #156 ) ) ;
#136 = DIRECTION ( 'NONE',  ( 0.000000000000000000, -1.000000000000000000, 0.000000000000000000 ) ) ;
#137 = EDGE_CURVE ( 'NONE', #337, #337, #304, .T. ) ;
#138 = CC_DESIGN_PERSON_AND_ORGANIZATION_ASSIGNMENT ( #235, #356, ( #369 ) ) ;
#139 = FACE_OUTER_BOUND ( 'NONE', #163, .T. ) ;
#140 = CIRCLE ( 'NONE', #277, 19.82678547852221129 ) ;
#141 = CARTESIAN_POINT ( 'NONE',  ( 0.000000000000000000, 0.000000000000000000, -11.29999999999998295 ) ) ;
#142 = VERTEX_POINT ( 'NONE', #141 ) ;
#143 = AXIS2_PLACEMENT_3D ( 'NONE', #188, #249, #328 ) ;
#144 = MANIFOLD_SOLID_BREP ( 'Fillet1', #198 ) ;
#145 = AXIS2_PLACEMENT_3D ( 'NONE', #361, #19, #131 ) ;
#146 = DESIGN_CONTEXT ( 'detailed design', #171, 'design' ) ;
#147 = PERSON_AND_ORGANIZATION ( #315, #368 ) ;
#148 = TOROIDAL_SURFACE ( 'NONE', #34, 19.70000000000000284, 0.2999999999999999889 ) ;
#149 = APPROVAL_DATE_TIME ( #286, #339 ) ;
#150 = APPROVAL_STATUS ( 'not_yet_approved' ) ;
#151 = FACE_BOUND ( 'NONE', #17, .T. ) ;
#152 = AXIS2_PLACEMENT_3D ( 'NONE', #297, #75, #45 ) ;
#153 = PERSON_AND_ORGANIZATION ( #315, #368 ) ;
#154 = ADVANCED_FACE ( 'NONE', ( #74, #24 ), #4, .T. ) ;
#155 = FACE_OUTER_BOUND ( 'NONE', #366, .T. ) ;
#156 = ORIENTED_EDGE ( 'NONE', *, *, #114, .T. ) ;
#157 = DIRECTION ( 'NONE',  ( -0.000000000000000000, -1.000000000000000000, -0.000000000000000000 ) ) ;
#158 = ORIENTED_EDGE ( 'NONE', *, *, #318, .F. ) ;
#159 = FACE_BOUND ( 'NONE', #301, .T. ) ;
#160 = DIRECTION ( 'NONE',  ( 0.000000000000000000, -1.000000000000000000, 0.000000000000000000 ) ) ;
#161 = CARTESIAN_POINT ( 'NONE',  ( 0.000000000000000000, 0.2999999999999825584, -11.00000000000000355 ) ) ;
#162 = DIRECTION ( 'NONE',  ( 0.000000000000000000, 0.000000000000000000, -1.000000000000000000 ) ) ;
#163 = EDGE_LOOP ( 'NONE', ( #23 ) ) ;
#164 = EDGE_CURVE ( 'NONE', #27, #27, #259, .T. ) ;
#165 = CARTESIAN_POINT ( 'NONE',  ( 0.000000000000000000, 0.000000000000000000, 0.000000000000000000 ) ) ;
#166 = ORIENTED_EDGE ( 'NONE', *, *, #253, .T. ) ;
#167 =( NAMED_UNIT ( * ) SI_UNIT ( $, .STERADIAN. ) SOLID_ANGLE_UNIT ( ) );
#168 = ORIENTED_EDGE ( 'NONE', *, *, #137, .T. ) ;
#169 = CARTESIAN_POINT ( 'NONE',  ( 0.000000000000000000, 6.306351710862216464, 20.00000000000000355 ) ) ;
#170 = CC_DESIGN_APPROVAL ( #346, ( #64 ) ) ;
#171 = APPLICATION_CONTEXT ( 'configuration controlled 3d designs of mechanical parts and assemblies' ) ;
#172 = VERTEX_POINT ( 'NONE', #221 ) ;
#173 = CIRCLE ( 'NONE', #41, 11.29999999999998295 ) ;
#174 = CC_DESIGN_PERSON_AND_ORGANIZATION_ASSIGNMENT ( #284, #96, ( #6 ) ) ;
#175 = AXIS2_PLACEMENT_3D ( 'NONE', #165, #367, #194 ) ;
#176 = EDGE_CURVE ( 'NONE', #279, #279, #353, .T. ) ;
#177 = PERSON_AND_ORGANIZATION_ROLE ( 'creator' ) ;
#178 = CALENDAR_DATE ( 2025, 30, 6 ) ;
#179 = SECURITY_CLASSIFICATION ( '', '', #33 ) ;
#180 = CARTESIAN_POINT ( 'NONE',  ( 0.000000000000000000, 0.000000000000000000, 0.000000000000000000 ) ) ;
#181 = DIRECTION ( 'NONE',  ( -0.000000000000000000, -1.000000000000000000, -0.000000000000000000 ) ) ;
#182 = APPLICATION_PROTOCOL_DEFINITION ( 'international standard', 'config_control_design', 1994, #282 ) ;
#183 = DIRECTION ( 'NONE',  ( 0.000000000000000000, 1.000000000000000000, 0.000000000000000000 ) ) ;
#184 = LOCAL_TIME ( 12, 45, 6.000000000000000000, #94 ) ;
#185 = MECHANICAL_CONTEXT ( 'NONE', #282, 'mechanical' ) ;
#186 = CARTESIAN_POINT ( 'NONE',  ( 0.000000000000000000, 6.306351710862216464, 0.000000000000000000 ) ) ;
#187 = EDGE_CURVE ( 'NONE', #270, #270, #87, .T. ) ;
#188 = CARTESIAN_POINT ( 'NONE',  ( 0.000000000000000000, 0.8847693673800366421, 0.000000000000000000 ) ) ;
#189 = DIRECTION ( 'NONE',  ( 0.000000000000000000, 1.000000000000000000, 0.000000000000000000 ) ) ;
#190 = DIRECTION ( 'NONE',  ( 0.000000000000000000, 1.000000000000000000, 0.000000000000000000 ) ) ;
#191 = APPROVAL ( #150, 'UNSPECIFIED' ) ;
#192 = EDGE_LOOP ( 'NONE', ( #79 ) ) ;
#193 = EDGE_LOOP ( 'NONE', ( #327 ) ) ;
#194 = DIRECTION ( 'NONE',  ( 0.000000000000000000, 0.000000000000000000, -1.000000000000000000 ) ) ;
#195 = DIRECTION ( 'NONE',  ( 0.000000000000000000, 1.000000000000000000, 0.000000000000000000 ) ) ;
#196 = VERTEX_POINT ( 'NONE', #169 ) ;
#197 = ORIENTED_EDGE ( 'NONE', *, *, #119, .F. ) ;
#198 = CLOSED_SHELL ( 'NONE', ( #351, #310, #252, #211, #60, #154, #254, #317, #283, #257, #89, #314, #264, #230 ) ) ;
#199 = CARTESIAN_POINT ( 'NONE',  ( 0.000000000000000000, 6.034459374751217631, -19.82678547852221129 ) ) ;
#200 = CYLINDRICAL_SURFACE ( 'NONE', #118, 20.00000000000000355 ) ;
#201 = AXIS2_PLACEMENT_3D ( 'NONE', #186, #236, #294 ) ;
#202 = CC_DESIGN_PERSON_AND_ORGANIZATION_ASSIGNMENT ( #153, #68, ( #64 ) ) ;
#203 = CIRCLE ( 'NONE', #59, 11.29999999999999005 ) ;
#204 = DATE_TIME_ROLE ( 'classification_date' ) ;
#205 = FACE_BOUND ( 'NONE', #49, .T. ) ;
#206 = APPROVAL_PERSON_ORGANIZATION ( #121, #346, #325 ) ;
#207 = DIRECTION ( 'NONE',  ( 0.000000000000000000, 1.000000000000000000, 0.000000000000000000 ) ) ;
#208 = PERSON_AND_ORGANIZATION ( #315, #368 ) ;
#209 = FACE_OUTER_BOUND ( 'NONE', #192, .T. ) ;
#210 = EDGE_LOOP ( 'NONE', ( #26 ) ) ;
#211 = ADVANCED_FACE ( 'NONE', ( #273, #159 ), #268, .T. ) ;
#212 = CARTESIAN_POINT ( 'NONE',  ( 0.000000000000000000, 0.2999999999999825584, 0.000000000000000000 ) ) ;
#213 = CARTESIAN_POINT ( 'NONE',  ( 0.000000000000000000, 4.249999999999999112, 0.000000000000000000 ) ) ;
#214 = FACE_OUTER_BOUND ( 'NONE', #267, .T. ) ;
#215 = AXIS2_PLACEMENT_3D ( 'NONE', #99, #67, #37 ) ;
#216 = EDGE_LOOP ( 'NONE', ( #333 ) ) ;
#217 = ORIENTED_EDGE ( 'NONE', *, *, #318, .T. ) ;
#218 = DIRECTION ( 'NONE',  ( 0.000000000000000000, 0.000000000000000000, 1.000000000000000000 ) ) ;
#219 = DIRECTION ( 'NONE',  ( 0.000000000000000000, 0.000000000000000000, -1.000000000000000000 ) ) ;
#220 = CC_DESIGN_APPROVAL ( #191, ( #6 ) ) ;
#221 = CARTESIAN_POINT ( 'NONE',  ( 0.000000000000000000, 6.999999999999999112, 19.70000000000000284 ) ) ;
#222 = FACE_OUTER_BOUND ( 'NONE', #216, .T. ) ;
#223 = ORIENTED_EDGE ( 'NONE', *, *, #349, .T. ) ;
#224 = CARTESIAN_POINT ( 'NONE',  ( 0.000000000000000000, 6.699999999999997513, 0.000000000000000000 ) ) ;
#225 = CARTESIAN_POINT ( 'NONE',  ( 0.000000000000000000, 6.999999999999999112, 0.000000000000000000 ) ) ;
#226 = AXIS2_PLACEMENT_3D ( 'NONE', #25, #269, #303 ) ;
#227 = VERTEX_POINT ( 'NONE', #251 ) ;
#228 = AXIS2_PLACEMENT_3D ( 'NONE', #107, #50, #80 ) ;
#229 = CARTESIAN_POINT ( 'NONE',  ( 0.000000000000000000, 0.2999999999999981570, -20.00000000000000355 ) ) ;
#230 = ADVANCED_FACE ( 'NONE', ( #338, #365 ), #57, .T. ) ;
#231 = LOCAL_TIME ( 12, 45, 6.000000000000000000, #98 ) ;
#232 = UNCERTAINTY_MEASURE_WITH_UNIT (LENGTH_MEASURE( 1.000000000000000082E-05 ), #3, 'distance_accuracy_value', 'NONE');
#233 = CALENDAR_DATE ( 2025, 30, 6 ) ;
#234 = EDGE_CURVE ( 'NONE', #364, #364, #350, .T. ) ;
#235 = PERSON_AND_ORGANIZATION ( #315, #368 ) ;
#236 = DIRECTION ( 'NONE',  ( 0.000000000000000000, 1.000000000000000000, 0.000000000000000000 ) ) ;
#237 = APPROVAL_ROLE ( '' ) ;
#238 = DIRECTION ( 'NONE',  ( 0.000000000000000000, -0.000000000000000000, 1.000000000000000000 ) ) ;
#239 = EDGE_LOOP ( 'NONE', ( #217 ) ) ;
#240 = FACE_BOUND ( 'NONE', #363, .T. ) ;
#241 = DIRECTION ( 'NONE',  ( 0.000000000000000000, 1.000000000000000000, 0.000000000000000000 ) ) ;
#242 = EDGE_LOOP ( 'NONE', ( #166 ) ) ;
#243 = ORIENTED_EDGE ( 'NONE', *, *, #253, .F. ) ;
#244 = DIRECTION ( 'NONE',  ( 0.000000000000000000, 0.000000000000000000, -1.000000000000000000 ) ) ;
#245 = FACE_OUTER_BOUND ( 'NONE', #135, .T. ) ;
#246 = DIRECTION ( 'NONE',  ( 0.000000000000000000, 0.000000000000000000, -1.000000000000000000 ) ) ;
#247 = CARTESIAN_POINT ( 'NONE',  ( 0.000000000000000000, 0.000000000000000000, 0.000000000000000000 ) ) ;
#248 = EDGE_LOOP ( 'NONE', ( #158 ) ) ;
#249 = DIRECTION ( 'NONE',  ( -0.000000000000000000, -1.000000000000000000, -0.000000000000000000 ) ) ;
#250 = CIRCLE ( 'NONE', #90, 19.70000000000000284 ) ;
#251 = CARTESIAN_POINT ( 'NONE',  ( 0.000000000000000000, 0.9655406252487807039, 19.82678547852221129 ) ) ;
#252 = ADVANCED_FACE ( 'NONE', ( #126, #12 ), #42, .F. ) ;
#253 = EDGE_CURVE ( 'NONE', #28, #28, #30, .T. ) ;
#254 = ADVANCED_FACE ( 'NONE', ( #103, #321 ), #47, .T. ) ;
#255 = CC_DESIGN_DATE_AND_TIME_ASSIGNMENT ( #125, #62, ( #64 ) ) ;
#256 = COORDINATED_UNIVERSAL_TIME_OFFSET ( 2, 0, .AHEAD. ) ;
#257 = ADVANCED_FACE ( 'NONE', ( #332, #222 ), #311, .T. ) ;
#258 = CALENDAR_DATE ( 2025, 30, 6 ) ;
#259 = CIRCLE ( 'NONE', #228, 19.82678547852221129 ) ;
#260 = CC_DESIGN_SECURITY_CLASSIFICATION ( #179, ( #6 ) ) ;
#261 = DIRECTION ( 'NONE',  ( 0.000000000000000000, 0.000000000000000000, -1.000000000000000000 ) ) ;
#262 = COORDINATED_UNIVERSAL_TIME_OFFSET ( 2, 0, .AHEAD. ) ;
#263 = CARTESIAN_POINT ( 'NONE',  ( 0.000000000000000000, 6.700000000000009948, 0.000000000000000000 ) ) ;
#264 = ADVANCED_FACE ( 'NONE', ( #77, #15 ), #148, .T. ) ;
#265 = ORIENTED_EDGE ( 'NONE', *, *, #56, .F. ) ;
#266 = DIRECTION ( 'NONE',  ( 0.000000000000000000, 0.000000000000000000, -1.000000000000000000 ) ) ;
#267 = EDGE_LOOP ( 'NONE', ( #265 ) ) ;
#268 = PLANE ( 'NONE',  #145 ) ;
#269 = DIRECTION ( 'NONE',  ( -0.000000000000000000, -1.000000000000000000, -0.000000000000000000 ) ) ;
#270 = VERTEX_POINT ( 'NONE', #46 ) ;
#271 = CARTESIAN_POINT ( 'NONE',  ( 0.000000000000000000, 6.699999999999997513, 0.000000000000000000 ) ) ;
#272 = ORIENTED_EDGE ( 'NONE', *, *, #187, .T. ) ;
#273 = FACE_OUTER_BOUND ( 'NONE', #340, .T. ) ;
#274 = CYLINDRICAL_SURFACE ( 'NONE', #152, 20.00000000000000355 ) ;
#275 = CARTESIAN_POINT ( 'NONE',  ( 0.000000000000000000, 2.749999999999999556, -16.00000000000000000 ) ) ;
#276 = EDGE_LOOP ( 'NONE', ( #78 ) ) ;
#277 = AXIS2_PLACEMENT_3D ( 'NONE', #55, #76, #305 ) ;
#278 = VERTEX_POINT ( 'NONE', #116 ) ;
#279 = VERTEX_POINT ( 'NONE', #161 ) ;
#280 = CONICAL_SURFACE ( 'NONE', #215, 11.29999999999999005, 0.7853981633974453924 ) ;
#281 = AXIS2_PLACEMENT_3D ( 'NONE', #224, #335, #218 ) ;
#282 = APPLICATION_CONTEXT ( 'configuration controlled 3d designs of mechanical parts and assemblies' ) ;
#283 = ADVANCED_FACE ( 'NONE', ( #155, #69 ), #106, .T. ) ;
#284 = PERSON_AND_ORGANIZATION ( #315, #368 ) ;
#285 = EDGE_CURVE ( 'NONE', #142, #142, #173, .T. ) ;
#286 = DATE_AND_TIME ( #178, #184 ) ;
#287 = LOCAL_TIME ( 12, 45, 6.000000000000000000, #11 ) ;
#288 = DATE_AND_TIME ( #290, #287 ) ;
#289 = CARTESIAN_POINT ( 'NONE',  ( 11.00000000000000355, 6.999999999999999112, 0.000000000000000000 ) ) ;
#290 = CALENDAR_DATE ( 2025, 30, 6 ) ;
#291 = CARTESIAN_POINT ( 'NONE',  ( 0.000000000000000000, 0.000000000000000000, 0.000000000000000000 ) ) ;
#292 = AXIS2_PLACEMENT_3D ( 'NONE', #263, #71, #299 ) ;
#293 = APPROVAL_STATUS ( 'not_yet_approved' ) ;
#294 = DIRECTION ( 'NONE',  ( 0.000000000000000000, 0.000000000000000000, 1.000000000000000000 ) ) ;
#295 = EDGE_LOOP ( 'NONE', ( #330 ) ) ;
#296 = CARTESIAN_POINT ( 'NONE',  ( 0.000000000000000000, 0.2999999999999825584, 0.000000000000000000 ) ) ;
#297 = CARTESIAN_POINT ( 'NONE',  ( 0.000000000000000000, 0.000000000000000000, 0.000000000000000000 ) ) ;
#298 = FACE_OUTER_BOUND ( 'NONE', #193, .T. ) ;
#299 = DIRECTION ( 'NONE',  ( 0.000000000000000000, 0.000000000000000000, 1.000000000000000000 ) ) ;
#300 = EDGE_LOOP ( 'NONE', ( #104 ) ) ;
#301 = EDGE_LOOP ( 'NONE', ( #105 ) ) ;
#302 = DIRECTION ( 'NONE',  ( -0.000000000000000000, -1.000000000000000000, -0.000000000000000000 ) ) ;
#303 = DIRECTION ( 'NONE',  ( 0.000000000000000000, 0.000000000000000000, 1.000000000000000000 ) ) ;
#304 = CIRCLE ( 'NONE', #281, 20.00000000000000355 ) ;
#305 = DIRECTION ( 'NONE',  ( 0.000000000000000000, 0.000000000000000000, 1.000000000000000000 ) ) ;
#306 = ORIENTED_EDGE ( 'NONE', *, *, #56, .T. ) ;
#307 = PRODUCT_RELATED_PRODUCT_CATEGORY ( 'detail', '', ( #369 ) ) ;
#308 = VERTEX_POINT ( 'NONE', #229 ) ;
#309 = DIRECTION ( 'NONE',  ( -0.000000000000000000, -1.000000000000000000, -0.000000000000000000 ) ) ;
#310 = ADVANCED_FACE ( 'NONE', ( #110, #205 ), #358, .T. ) ;
#311 = CONICAL_SURFACE ( 'NONE', #120, 20.00000000000000355, 0.7853981633974482790 ) ;
#312 = AXIS2_PLACEMENT_3D ( 'NONE', #213, #190, #344 ) ;
#313 = AXIS2_PLACEMENT_3D ( 'NONE', #212, #160, #219 ) ;
#314 = ADVANCED_FACE ( 'NONE', ( #13, #214 ), #280, .F. ) ;
#315 = PERSON ( 'UNSPECIFIED', 'UNSPECIFIED', 'UNSPECIFIED', ('UNSPECIFIED'), ('UNSPECIFIED'), ('UNSPECIFIED') ) ;
#316 = CALENDAR_DATE ( 2025, 30, 6 ) ;
#317 = ADVANCED_FACE ( 'NONE', ( #209, #151 ), #111, .T. ) ;
#318 = EDGE_CURVE ( 'NONE', #172, #172, #250, .T. ) ;
#319 = PERSON_AND_ORGANIZATION ( #315, #368 ) ;
#320 = APPROVAL_STATUS ( 'not_yet_approved' ) ;
#321 = FACE_OUTER_BOUND ( 'NONE', #295, .T. ) ;
#322 =( GEOMETRIC_REPRESENTATION_CONTEXT ( 3 ) GLOBAL_UNCERTAINTY_ASSIGNED_CONTEXT ( ( #232 ) ) GLOBAL_UNIT_ASSIGNED_CONTEXT ( ( #3, #88, #167 ) ) REPRESENTATION_CONTEXT ( 'NONE', 'WORKASPACE' ) );
#323 = APPROVAL_DATE_TIME ( #288, #346 ) ;
#324 = DIRECTION ( 'NONE',  ( 0.000000000000000000, 0.000000000000000000, 1.000000000000000000 ) ) ;
#325 = APPROVAL_ROLE ( '' ) ;
#326 = DIRECTION ( 'NONE',  ( -0.000000000000000000, -1.000000000000000000, -0.000000000000000000 ) ) ;
#327 = ORIENTED_EDGE ( 'NONE', *, *, #7, .T. ) ;
#328 = DIRECTION ( 'NONE',  ( 0.000000000000000000, 0.000000000000000000, -1.000000000000000000 ) ) ;
#329 = AXIS2_PLACEMENT_3D ( 'NONE', #22, #183, #83 ) ;
#330 = ORIENTED_EDGE ( 'NONE', *, *, #234, .F. ) ;
#331 = DIRECTION ( 'NONE',  ( 0.000000000000000000, 1.000000000000000000, 0.000000000000000000 ) ) ;
#332 = FACE_BOUND ( 'NONE', #248, .T. ) ;
#333 = ORIENTED_EDGE ( 'NONE', *, *, #137, .F. ) ;
#334 = ORIENTED_EDGE ( 'NONE', *, *, #114, .F. ) ;
#335 = DIRECTION ( 'NONE',  ( -0.000000000000000000, -1.000000000000000000, -0.000000000000000000 ) ) ;
#336 = CARTESIAN_POINT ( 'NONE',  ( 0.000000000000000000, 0.2999999999999981570, 0.000000000000000000 ) ) ;
#337 = VERTEX_POINT ( 'NONE', #21 ) ;
#338 = FACE_OUTER_BOUND ( 'NONE', #40, .T. ) ;
#339 = APPROVAL ( #320, 'UNSPECIFIED' ) ;
#340 = EDGE_LOOP ( 'NONE', ( #272 ) ) ;
#341 = CARTESIAN_POINT ( 'NONE',  ( 0.000000000000000000, 4.249999999999999112, 0.000000000000000000 ) ) ;
#342 = CIRCLE ( 'NONE', #2, 20.00000000000000355 ) ;
#343 = CARTESIAN_POINT ( 'NONE',  ( 0.000000000000000000, 0.000000000000000000, 0.000000000000000000 ) ) ;
#344 = DIRECTION ( 'NONE',  ( 0.000000000000000000, 0.000000000000000000, 1.000000000000000000 ) ) ;
#345 = AXIS2_PLACEMENT_3D ( 'NONE', #296, #136, #44 ) ;
#346 = APPROVAL ( #293, 'UNSPECIFIED' ) ;
#347 = APPROVAL_PERSON_ORGANIZATION ( #9, #191, #237 ) ;
#348 = APPROVAL_PERSON_ORGANIZATION ( #319, #339, #63 ) ;
#349 = EDGE_CURVE ( 'NONE', #227, #227, #140, .T. ) ;
#350 = CIRCLE ( 'NONE', #362, 16.00000000000000000 ) ;
#351 = ADVANCED_FACE ( 'NONE', ( #298, #133 ), #200, .T. ) ;
#352 = DATE_AND_TIME ( #233, #58 ) ;
#353 = CIRCLE ( 'NONE', #345, 11.00000000000000355 ) ;
#354 = APPROVAL_DATE_TIME ( #123, #191 ) ;
#355 = CARTESIAN_POINT ( 'NONE',  ( 0.000000000000000000, 0.000000000000000000, 0.000000000000000000 ) ) ;
#356 = PERSON_AND_ORGANIZATION_ROLE ( 'design_owner' ) ;
#357 = DIRECTION ( 'NONE',  ( 0.000000000000000000, 0.000000000000000000, 1.000000000000000000 ) ) ;
#358 = PLANE ( 'NONE',  #8 ) ;
#359 = ORIENTED_EDGE ( 'NONE', *, *, #176, .F. ) ;
#360 = ORIENTED_EDGE ( 'NONE', *, *, #119, .T. ) ;
#361 = CARTESIAN_POINT ( 'NONE',  ( 11.00000000000000355, 0.000000000000000000, 0.000000000000000000 ) ) ;
#362 = AXIS2_PLACEMENT_3D ( 'NONE', #95, #124, #261 ) ;
#363 = EDGE_LOOP ( 'NONE', ( #359 ) ) ;
#364 = VERTEX_POINT ( 'NONE', #275 ) ;
#365 = FACE_OUTER_BOUND ( 'NONE', #129, .T. ) ;
#366 = EDGE_LOOP ( 'NONE', ( #334 ) ) ;
#367 = DIRECTION ( 'NONE',  ( -0.000000000000000000, -1.000000000000000000, -0.000000000000000000 ) ) ;
#368 = ORGANIZATION ( 'UNSPECIFIED', 'UNSPECIFIED', '' ) ;
#369 = PRODUCT ( '250630 STEP 1-400392-01_2151', '250630 STEP 1-400392-01_2151', '', ( #185 ) ) ;
ENDSEC;
END-ISO-10303-21;
